Blind Guardian - Mordreds Song Chords & Tabs

 

Mordreds Song Chords & Tabs

Blind Guardian Chords & Tabs

Version: 1 Type: Bass Tab 0 ratings
1 star 2 stars 3 stars 4 stars 5 stars
comments

Mordreds Song Bass Tab

Tune Down

F#||------|------|------|------|------|------|------|------|------|------|
C#||------|------|------|------|------|------|------|------|------|------|
G#||------|------|------|------|------|------|------|------|------|------|
D#||------|------|------|------|------|------|------|------|------|------|


                                                                                
------|------|------|------|------|------|------|------------------------------|
------|------|------|------|------|------|------|------------------------------|
------|------|------|------|------|------|------|--5--5-5-5--5-5-3--3-3-3--3-3-|
------|------|------|------|------|------|------|------------------------------|


                                                                              
--------------------------|------------------------------|-------------------|
--------------------------|------------------------------|-------------------|
--5--5-5-5--5-5-1----3----|--5--5-5-5--5-5-3--3-3-3--3-3-|--1----------------|
--------------------------|------------------------------|-------------------|


                                                          
------------------------------|--------------------------|
------------------------------|--------------------------|
--5--5-5-5--5-5-3--3-3-3--3-3-|--5--5-5-5--5-5-1----3----|
------------------------------|--------------------------|


                                                                          
------------------------------|-------------------|----------------------|
------------------------------|-------------------|----------------------|
--5--5-5-5--5-5-3--3-3-3--3-3-|--1----------------|--5--5------1----5----|
------------------------------|-------------------|----------------------|


                                                                
-------------------|----------------------|--------------------|
-------------------|----------------------|--------------------|
--3----------------|--5--5------1----5----|--3--------0--------|
-------------------|----------------------|--------------------|


                                                                  
----------------------|-------------------|----------------------|
----------------------|-------------------|----------------------|
--5--5------1----5----|--3----------------|--5--5------1----5----|
----------------------|-------------------|----------------------|


                                                                    
--------------------|-------------------------|--------------------|
--------------------|-------------------------|--------------------|
--3--------0--------|--1----1--1--1--1--1--1--|--1------------3----|
--------------------|-------------------------|--------------------|


                                                                    
---------------------------|-------------------|-------------------|
---------------------------|-------------------|-------------------|
--5--5-5-5--5----5-5-5--5--|--0----------------|-------------------|
---------------------------|-------------------|--1----------------|


                                                                     
--------------------|---------------------------|-------------------|
--------------------|---------------------------|-------------------|
--3-----------------|--5--5-5-5--5----5-5-5--5--|--0----------------|
-------5------------|---------------------------|-------------------|


                                                              
-------------------|--------------------|--------------------|
-------------------|--------------------|--------------------|
-------------------|--3-----------------|--5------3----------|
--1----------------|-------5------------|--------------------|


                                                               
--------------------|--------------------|--------------------|
--------------------|--------------------|--------------------|
--0------1----------|--3------1----------|--0------5----------|
--------------------|--------------------|--------------------|


                                                                
--------------------|--------------------|---------------------|
--------------------|--------------------|---------------------|
--3------1----------|--0------5----------|--1--0----0----------|
--------------------|--------------------|---------------------|


                                                               
---------------------|-------------------|--------------------|
---------------------|-------------------|--------------------|
--0----------1---1---|--0----------------|------------1---1---|
---------------------|-------------------|--------------------|


                                                          
------------------------------|--------------------------|
------------------------------|--------------------------|
--5--5-5-5--5-5-3--3-3-3--3-3-|--5--5-5-5--5-5-1----3----|
------------------------------|--------------------------|


                                                                        
------------------------------|-------------------|--------------------|
------------------------------|-------------------|--------------------|
--5--5-5-5--5-5-3--3-3-3--3-3-|--5----------------|--7--------5--------|
------------------------------|-------------------|--------------------|


                                                               
---------------------|--------------------|-------------------|
---------------------|--------------------|-------------------|
--3--------3----5----|--7--------5--------|--3----------------|
---------------------|--------------------|-------------------|


                                                          
------------------------------|--------------------------|
------------------------------|--------------------------|
--5--5-5-5--5-5-3--3-3-3--3-3-|--5--5-5-5--5-5-1----3----|
------------------------------|--------------------------|

[ Tab from: http://www.guitartabs.cc/tabs/b/blind_guardian/mordreds_song_btab.html ]
                                                                        
------------------------------|-------------------|--------------------|
------------------------------|-------------------|--------------------|
--5--5-5-5--5-5-3--3-3-3--3-3-|--5----------------|--7--------5--------|
------------------------------|-------------------|--------------------|


                                                               
---------------------|--------------------|-------------------|
---------------------|--------------------|-------------------|
--3--------3----5----|--7--------5--------|--3----------------|
---------------------|--------------------|-------------------|


                                                                    
-------------------|--------------------------|--------------------|
-------------------|--------------------------|--------------------|
-------------------|--------------------------|--6--------1--------|
--3----------------|--3--3--3--3--3--3--3--3--|--------------------|


                                                              
-------------------|--------------------|--------------------|
-------------------|--------------------|--------------------|
-------------------|--6--------1--------|--3--------5--------|
--1----------------|--------------------|--------------------|


                                                               
--------------------|--------------------|--------------------|
--------------------|--------------------|--------------------|
-----------5--------|--1-----------------|--------------------|
--3-----------------|-----------1--------|--3--------1--------|


                                                                
--------------------|--------------------|---------------------|
--------------------|--------------------|---------------------|
--6--------1--------|--3-----------------|--5----3----1--------|
--------------------|-----------1--------|---------------------|


                                                                
--------------------|---------------------|--------------------|
--------------------|---------------------|--------------------|
--3--------0--------|--5----3----1--------|--3--------0--------|
--------------------|---------------------|--------------------|


                                                                 
---------------------|--------------------|---------------------|
---------------------|--------------------|---------------------|
--5----3----1--------|--3--------0--------|--5----3----1--------|
---------------------|--------------------|---------------------|


                                                                    
-------------------|---------------------------|-------------------|
-------------------|---------------------------|-------------------|
--0----------------|--5--5-5-5--5----5-5-5--5--|--0----------------|
-------------------|---------------------------|-------------------|


                                                                     
-------------------|--------------------|---------------------------|
-------------------|--------------------|---------------------------|
-------------------|--3-----------------|--5--5-5-5--5----5-5-5--5--|
--1----------------|-------5------------|---------------------------|


                                                             
-------------------|-------------------|--------------------|
-------------------|-------------------|--------------------|
--0----------------|-------------------|--3-----------------|
-------------------|--1----------------|-------5------------|


                                                               
--------------------|--------------------|--------------------|
--------------------|--------------------|--------------------|
--5------3----------|--0------1----------|--3------1----------|
--------------------|--------------------|--------------------|


                                                               
--------------------|--------------------|--------------------|
--------------------|--------------------|--------------------|
--0------5----------|--3------1----------|--0------5----------|
--------------------|--------------------|--------------------|


                                                                    
---------------------------|-------------------|-------------------|
---------------------------|-------------------|-------------------|
--5--5-5-5--5----5-5-5--5--|--0----------------|-------------------|
---------------------------|-------------------|--1----------------|


                                                                     
--------------------|---------------------------|-------------------|
--------------------|---------------------------|-------------------|
--3-----------------|--5--5-5-5--5----5-5-5--5--|--0----------------|
-------5------------|---------------------------|-------------------|


                                                              
-------------------|--------------------|--------------------|
-------------------|--------------------|--------------------|
-------------------|--3-----------------|--5------3----------|
--1----------------|-------5------------|--------------------|


                                                               
--------------------|--------------------|--------------------|
--------------------|--------------------|--------------------|
--0------1----------|--3------1----------|--0------5----------|
--------------------|--------------------|--------------------|


                                                                             
--------------------|--------------------|----|----|----|----|----|----|----|
--------------------|--------------------|----|----|----|----|----|----|----|
--3------1----------|--0------5----------|----|----|----|----|----|----|----|
--------------------|--------------------|----|----|----|----|----|----|----|


                                                                  
----|----|----|----|----|----|----|----|----|----|----|----|----||
----|----|----|----|----|----|----|----|----|----|----|----|----||
----|----|----|----|----|----|----|----|----|----|----|----|----||
----|----|----|----|----|----|----|----|----|----|----|----|----||
Comments