Blind Guardian - Imaginations From The Other Side Chords & Tabs

 

Imaginations From The Other Side Chords & Tabs

Blind Guardian Chords & Tabs

Version: 1 Type: Bass Tab 0 ratings
1 star 2 stars 3 stars 4 stars 5 stars
comments

Imaginations From The Other Side Bass Tab

Tune Down

F#||----|-------------------|------------------|--------------------|
C#||----|-------------------|------------------|--------------------|
G#||----|-------------------|------------------|---------7----------|
D#||----|--0----------------|------------------|--0-----------------|


                                                                 
---------------------|--------------------|---------------------|
---------------------|--------------------|---------------------|
---------7--6--------|---------7----------|---------7--6--------|
--0------------------|--0-----------------|--0------------------|


                                                                
--------------------|---------------------|--------------------|
--------------------|---------------------|--------------------|
---------7----------|---------7--6--------|---------7----------|
--0-----------------|--0------------------|--0-----------------|


                                                         
---------------------|----------------------------------|
---------------------|----------------------------------|
---------7--6--------|----------------------------------|
--0------------------|--0-0-0-0-0-0-0-0-0-0-0-0-0-0-0-0-|


                                                                 
-----------------------------|----------------------------------|
-----------------------------|----------------------------------|
-----------------------------|----------------------------------|
--0-0-0-0-0-0-0-0-6--3----5--|--0-0-0-0-0-0-0-0-0-0-0-0-0-0-0-0-|


                                                                 
-----------------------------|----------------------------------|
-----------------------------|----------------------------------|
-----------------------------|----------------------------------|
--0-0-0-0-0-0-0-0-6--3----5--|--0-0-0-0-0-0-0-0-0-0-0-0-0-0-0-0-|


                                                                 
-----------------------------|----------------------------------|
-----------------------------|----------------------------------|
-----------------------------|----------------------------------|
--0-0-0-0-0-0-0-0-6--3----5--|--0-0-0-0-0-0-0-0-0-0-0-0-0-0-0-0-|


                                                                 
-----------------------------|----------------------------------|
-----------------------------|----------------------------------|
-----------------------------|--5h7-7-7-7-7-5h7-7-7-7-7-5h7-7-7-|
--0-0-0-0-0-0-0-0-6--3----5--|----------------------------------|


                                                                      
----------------------------------|----------------------------------|
----------------------------------|----------------------------------|
--5h7-7-7-7-7-5h7-7-7-7-7-5h7-7-7-|--5h7-7-7-7-7-5h7-7-7-7-7-5h7-7-7-|
----------------------------------|----------------------------------|


                                                                   
-------------------------------|----------------------------------|
-------------------------------|----------------------------------|
--5h7-7-7-7-7-5h7-7-7-7-7-7----|----------------------------------|
-------------------------------|--0-0-0-0-0-0-0-0-0-0-0-0-0-0-0-0-|


                                                                      
----------------------------------|----------------------------------|
----------------------------------|----------------------------------|
----------------------------------|--3-3-3-3-3-3-3-3-3-3-3-3-3-3-3-3-|
--0-0-0-0-0-0-0-0-0-0-0-0-0-0-0-0-|----------------------------------|


                                                                      
----------------------------------|----------------------------------|
----------------------------------|----------------------------------|
--3-3-3-3-3-3-3-3-3-3-3-3-3-3-3-3-|----------------------------------|
----------------------------------|--0-0-0-0-0-0-0-0-0-0-0-0-0-0-0-0-|


                                                                      
----------------------------------|----------------------------------|
----------------------------------|----------------------------------|
----------------------------------|--3-3-3-3-3-3-3-3-3-3-3-3-3-3-3-3-|
--0-0-0-0-0-0-0-0-0-0-0-0-0-0-0-0-|----------------------------------|


                                                          
----------------------------------|----------------------|
----------------------------------|----------------------|
--3-3-3-3-3-3-3-3-3-3-3-3-3-3-3-3-|--0----0----0----0----|
----------------------------------|----------------------|


                                                                         
----------------------|----------------------|--------------------------|
----------------------|----------------------|--------------------------|
--2----2----2----2----|--3----3----3----3----|--5--5--5--5--5--5--5--5--|
----------------------|----------------------|--------------------------|


                                                                 
----------------------------------|-----------------------------|
----------------------------------|-----------------------------|
--7-7-7-7-7-7-7-7-7-7-7-7-7-7-7-7-|--7-7-7-7-7-7-7-7------------|
----------------------------------|------------------3---5---6--|


                                                                 
----------------------------------|-----------------------------|
----------------------------------|-----------------------------|
--7-7-7-7-7-7-7-7-7-7-7-7-7-7-7-7-|--7-7-7-7-7-7-7-7------------|
----------------------------------|------------------6---3---5--|


                                                                 
----------------------------------|-----------------------------|
----------------------------------|-----------------------------|
----------------------------------|-----------------------------|
--0-0-0-0-0-0-0-0-0-0-0-0-0-0-0-0-|--0-0-0-0-0-0-0-0-3---5---6--|


                                                                 
----------------------------------|-----------------------------|
----------------------------------|-----------------------------|
----------------------------------|-----------------------------|
--0-0-0-0-0-0-0-0-0-0-0-0-0-0-0-0-|--0-0-0-0-0-0-0-0-6---3---5--|


                                                              
------------------------------|------------------------------|
------------------------------|------------------------------|
--7--7--7-7-7--7-7-7-7--7-7-7-|------------------------------|
------------------------------|--3--3--3-3-3--3-3-3-3--3-3-3-|


                                                              
------------------------------|------------------------------|
------------------------------|------------------------------|
--5--5--5-5-5--5-5-5-5--5-5-5-|------------------------------|
------------------------------|--5--5--5-5-5--5-5-5-5--5-5-5-|


                                                              
------------------------------|------------------------------|
------------------------------|------------------------------|
--7--7--7-7-7--7-7-7-7--7-7-7-|------------------------------|
------------------------------|--3--3--3-3-3--3-3-3-3--3-3-3-|


                                                              
------------------------------|------------------------------|
------------------------------|------------------------------|
--5--5--5-5-5--5-5-5-5--5-5-5-|------------------------------|
------------------------------|--5--5--5-5-5--5-5-5-5--5-5-5-|


                                                                      
----------------------------------|----------------------------------|
----------------------------------|----------------------------------|
----------------------------------|----------------------------------|
--2-2-2-2-2-2-2-2-2-2-2-2-2-2-2-2-|--5-5-5-5-5-5-5-5-5-5-5-5-5-5-5-5-|


                                                                      
----------------------------------|----------------------------------|
----------------------------------|----------------------------------|
--2-2-2-2-2-2-2-2-2-2-2-2-2-2-2-2-|--5-5-5-5-5-5-5-5-4-4-4-4-4-4-4-4-|
----------------------------------|----------------------------------|


                                                                      
----------------------------------|----------------------------------|
----------------------------------|----------------------------------|
----------------------------------|----------------------------------|
--2-2-2-2-2-2-2-2-2-2-2-2-2-2-2-2-|--5-5-5-5-5-5-5-5-5-5-5-5-5-5-5-5-|


                                                                      
----------------------------------|----------------------------------|
----------------------------------|----------------------------------|
--2-2-2-2-2-2-2-2-2-2-2-2-2-2-2-2-|--5-5-5-5-5-5-5-5-4-4-4-4-4-4-4-4-|
----------------------------------|----------------------------------|


                                                                      
----------------------------------|----------------------------------|
----------------------------------|----------------------------------|
----------------------------------|----------------------------------|
--2-2-2-2-2-2-2-2-2-2-2-2-2-2-2-2-|--1-1-1-1-1-1-1-1-1-1-1-1-1-1-1-1-|


                                                                      
----------------------------------|----------------------------------|
----------------------------------|----------------------------------|
----------------------------------|--5-5-5-5-5-5-5-5-5-5-5-5-5-5-5-5-|
--3-3-3-3-3-3-3-3-3-3-3-3-3-3-3-3-|----------------------------------|


                                                                      
----------------------------------|----------------------------------|
----------------------------------|----------------------------------|
----------------------------------|----------------------------------|
--2-2-2-2-2-2-2-2-2-2-2-2-2-2-2-2-|--1-1-1-1-1-1-1-1-1-1-1-1-1-1-1-1-|


                                                                      
----------------------------------|----------------------------------|
----------------------------------|----------------------------------|
----------------------------------|--5-5-5-5-5-5-5-5-5-5-5-5-5-5-5-5-|
--3-3-3-3-3-3-3-3-3-3-3-3-3-3-3-3-|----------------------------------|


                                                      
--------------------------|--------------------------|
--------------------------|--------------------------|
--------------------------|--------------------------|
--2--2--2--2--2--2--2--2--|--0--0--0--0--0--0--0--0--|


                                                                                
--------------------------|-------------------------|--------------------------|
--------------------------|-------------------------|--------------------------|
--2--2--2--2--2--2--2--2--|--0--0--0--0--2---0------|--------------------------|
--------------------------|----------------------3--|--2--2--2--2--2--2--2--2--|


                                                                                
--------------------------|--------------------------|-------------------------|
--------------------------|--------------------------|-------------------------|
--------------------------|--2--2--2--2--2--2--2--2--|--------------5---4---2--|
--0--0--0--0--0--0--0--0--|--------------------------|--0--0--0--0-------------|


                                                      
--------------------------|--------------------------|
--------------------------|--------------------------|
--------------------------|--------------------------|
--2--2--2--2--2--2--2--2--|--0--0--0--0--0--0--0--0--|


                                                                                
--------------------------|-------------------------|--------------------------|
--------------------------|-------------------------|--------------------------|
--2--2--2--2--2--2--2--2--|--0--0--0--0--2---0------|--------------------------|
--------------------------|----------------------3--|--2--2--2--2--2--2--2--2--|


                                                                                
--------------------------|--------------------------|-------------------------|
--------------------------|--------------------------|-------------------------|
--------------------------|--2--2--2--2--2--2--2--2--|--0--0--0--0--2---0------|
--0--0--0--0--0--0--0--0--|--------------------------|----------------------3--|


                                                                      
----------------------------------|----------------------------------|
----------------------------------|----------------------------------|
----------------------------------|----------------------------------|
--2-2-2-2-2-2-2-2-2-2-2-2-2-2-2-2-|--5-5-5-5-5-5-5-5-0-0-0-0-0-0-0-0-|


                                                                      
----------------------------------|----------------------------------|
----------------------------------|----------------------------------|
----------------------------------|----------------------------------|
--2-2-2-2-2-2-2-2-2-2-2-2-2-2-2-2-|--5-5-5-5-5-5-5-5-0-0-0-0-0-0-0-0-|


                                                                      
----------------------------------|----------------------------------|
----------------------------------|----------------------------------|
----------------------------------|----------------------------------|
--2-2-2-2-2-2-2-2-2-2-2-2-2-2-2-2-|--5-5-5-5-5-5-5-5-0-0-0-0-0-0-0-0-|


                                                                      
----------------------------------|----------------------------------|
----------------------------------|----------------------------------|
----------------------------------|----------------------------------|
--2-2-2-2-2-2-2-2-2-2-2-2-2-2-2-2-|--5-5-5-5-5-5-5-5-0-0-0-0-0-0-0-0-|


                                                          
----------------------------|----------------------------|
----------------------------|----------------------------|
--4-4-4-4-4----3-3-3--2--0--|--4-4-4-4-4----3-3-3--2--0--|
----------------------------|----------------------------|


                                                                               
----------------------------|----------------------------|--------------------|
----------------------------|----------------------------|---------4----------|
--4-4-4-4-4----3-3-3--2--0--|--4-4-4-4-4----3-3-3--2--0--|--------------------|
----------------------------|----------------------------|--2-----------------|


                                                                 
---------------------|--------------------|---------------------|
---------4--3--------|---------4----------|---------4--3--------|
---------------------|--------------------|---------------------|
--2------------------|--2-----------------|--2------------------|


                                                                
--------------------|---------------------|--------------------|
---------4----------|---------4--3--------|---------4----------|
--------------------|---------------------|--------------------|
--2-----------------|--2------------------|--2-----------------|


                                                        
---------------------|---------------------------------|
---------4--3--------|---------------------------------|
---------------------|--9--9-9-9-9-9-9-9-9-9-9-9-9-9-9-|
--2------------------|---------------------------------|


                                                                    
---------------------------------|---------------------------------|
---------------------------------|---------------------------------|
--5--5-5-5-5-5-5-5-5-5-5-5-5-5-5-|--9--9-9-9-9-9-9-9-9-9-9-9-9-9-9-|
---------------------------------|---------------------------------|


                                                                    
---------------------------------|---------------------------------|
---------------------------------|---------------------------------|
--5--5-5-5-5-5-5-5-5-5-5-5-5-5-5-|--9--9-9-9-9-9-9-9-9-9-9-9-9-9-9-|
---------------------------------|---------------------------------|


                                                                    
---------------------------------|---------------------------------|
---------------------------------|---------------------------------|
--5--5-5-5-5-5-5-5-5-5-5-5-5-5-5-|--9--9-9-9-9-9-9-9-9-9-9-9-9-9-9-|
---------------------------------|---------------------------------|


                                                                 
---------------------------------|------------------------------|
---------------------------------|------------------------------|
--5--5-5-5-5-5-5-5-5-5-5-5-5-5-5-|--2----2--2--2--2----2--2--2--|
---------------------------------|------------------------------|


                                                              
------------------------------|------------------------------|
------------------------------|------------------------------|
--4----4--4--4--4----4--2-----|------------------------------|
---------------------------5--|--2----2--2--2--2----2--2--2--|


                                                                  
----------------------------------|------------------------------|
----------------------------------|------------------------------|
----------------------------------|--2----2--2--2--2----2--2--2--|
--5----5--5--5--5--5--5--5--5--2--|------------------------------|

[ Tab from: http://www.guitartabs.cc/tabs/b/blind_guardian/imaginations_from_the_other_side_btab.html ]
                                                          
------------------------------|--------------------------|
------------------------------|--------------------------|
--4----4--4--4--4----4--2-----|--------------------------|
---------------------------5--|--2----2--2--2--2----0----|


                                                          
--------------------------|------------------------------|
--------------------------|------------------------------|
--------------------------|--2----2--2--2--2----2--2--2--|
--2----2--2--2--2----0----|------------------------------|


                                                              
------------------------------|------------------------------|
------------------------------|------------------------------|
--4----4--4--4--4----4--2-----|------------------------------|
---------------------------5--|--2----2--2--2--2----2--2--2--|


                                                                  
----------------------------------|------------------------------|
----------------------------------|------------------------------|
----------------------------------|--2----2--2--2--2----2--2--2--|
--5----5--5--5--5--5--5--5--5--2--|------------------------------|


                                                          
------------------------------|--------------------------|
------------------------------|--------------------------|
--4----4--4--4--4----4--2-----|--------------------------|
---------------------------5--|--2----2--2--2--2----0----|


                                                              
--------------------------|----------------------------------|
--------------------------|----------------------------------|
--------------------------|----------------------------------|
--2----2--2--2--2----0----|--2-2-2-2-2-2-2-2-2-2-2-2-2-2-2-2-|


                                                                      
----------------------------------|----------------------------------|
----------------------------------|----------------------------------|
----------------------------------|--2-2-2-2-2-2-2-2-2-2-2-2-2-2-2-2-|
--5-5-5-5-5-5-5-5-5-5-5-5-5-5-5-5-|----------------------------------|


                                                                      
----------------------------------|----------------------------------|
----------------------------------|----------------------------------|
--5-5-5-5-5-5-5-5-4-4-4-4-4-4-4-4-|----------------------------------|
----------------------------------|--2-2-2-2-2-2-2-2-2-2-2-2-2-2-2-2-|


                                                                      
----------------------------------|----------------------------------|
----------------------------------|----------------------------------|
----------------------------------|--2-2-2-2-2-2-2-2-2-2-2-2-2-2-2-2-|
--5-5-5-5-5-5-5-5-5-5-5-5-5-5-5-5-|----------------------------------|


                                                              
----------------------------------|--------------------------|
----------------------------------|--------------------------|
--5-5-5-5-5-5-5-5-4-4-4-4-4-4-4-4-|--------------------------|
----------------------------------|--2--2--2--2--2--2--2--2--|


                                                                                
--------------------------|--------------------------|-------------------------|
--------------------------|--------------------------|-------------------------|
--------------------------|--2--2--2--2--2--2--2--2--|--0--0--0--0--2---0------|
--0--0--0--0--0--0--0--0--|--------------------------|----------------------3--|


                                                      
--------------------------|--------------------------|
--------------------------|--------------------------|
--------------------------|--------------------------|
--2--2--2--2--2--2--2--2--|--0--0--0--0--0--0--0--0--|


                                                                                
--------------------------|-------------------------|--------------------------|
--------------------------|-------------------------|--------------------------|
--2--2--2--2--2--2--2--2--|--------------5---4---2--|--------------------------|
--------------------------|--0--0--0--0-------------|--2--2--2--2--2--2--2--2--|


                                                                                
--------------------------|--------------------------|-------------------------|
--------------------------|--------------------------|-------------------------|
--------------------------|--2--2--2--2--2--2--2--2--|--0--0--0--0--2---0------|
--0--0--0--0--0--0--0--0--|--------------------------|----------------------3--|


                                                      
--------------------------|--------------------------|
--------------------------|--------------------------|
--------------------------|--------------------------|
--2--2--2--2--2--2--2--2--|--0--0--0--0--0--0--0--0--|


                                                     
--------------------------|-------------------------|
--------------------------|-------------------------|
--2--2--2--2--2--2--2--2--|--0--0--0--0--2---0------|
--------------------------|----------------------3--|


                                                                      
----------------------------------|----------------------------------|
----------------------------------|----------------------------------|
------------------4-4-4-4-4-4-4-4-|--5-5-5-5-5-5-5-5-5-5-5-5-2-2-2-2-|
--2-2-2-2-2-2-2-2-----------------|----------------------------------|


                                                                      
----------------------------------|----------------------------------|
----------------------------------|----------------------------------|
------------------4-4-4-4-4-4-4-4-|--5-5-5-5-5-5-5-5-5-5-5-5-2-2-2-2-|
--2-2-2-2-2-2-2-2-----------------|----------------------------------|


                                                                      
----------------------------------|----------------------------------|
----------------------------------|----------------------------------|
------------------6-6-6-6-6-6-6-6-|--7-7-7-7-7-7-7-7-2-2-2-2-1-1-1-1-|
--4-4-4-4-4-4-4-4-----------------|----------------------------------|


                                                                      
----------------------------------|----------------------------------|
----------------------------------|----------------------------------|
------------------6-6-6-6-6-6-6-6-|--7-7-7-7-7-7-7-7-2-2-2-2-1-1-1-1-|
--4-4-4-4-4-4-4-4-----------------|----------------------------------|


                                                                        
-----------------------|-----------------------|-----------------------|
-----------------------|-----------------------|-----------------------|
-----------------------|-----------------------|-----------------------|
--5-5-5-5-5------------|--4-4-4-4-4------------|--3-3-3-3-3------------|


                                                                
----------------------------|----------------------------------|
----------------------------|----------------------------------|
--5-5-5-5-5----3-3-3-3-3----|----------------------------------|
----------------------------|--5-5-5-5-5-5-5-5-5-5-5-5-5-5-5-5-|


                                                                      
----------------------------------|----------------------------------|
----------------------------------|----------------------------------|
----------------------------------|----------------------------------|
--4-4-4-4-4-4-4-4-4-4-4-4-4-4-4-4-|--3-3-3-3-3-3-3-3-3-3-3-3-3-3-3-3-|


                                                                      
----------------------------------|----------------------------------|
----------------------------------|----------------------------------|
----------------------------------|----------------------------------|
--1-1-1-1-1-1-1-1-0-0-0-0-0-0-0-0-|--5-5-5-5-5-5-5-5-5-5-5-5-5-5-5-5-|


                                                                      
----------------------------------|----------------------------------|
----------------------------------|----------------------------------|
----------------------------------|----------------------------------|
--4-4-4-4-4-4-4-4-4-4-4-4-4-4-4-4-|--3-3-3-3-3-3-3-3-3-3-3-3-3-3-3-3-|


                                                                      
----------------------------------|----------------------------------|
----------------------------------|----------------------------------|
----------------------------------|----------------------------------|
--1-1-1-1-1-1-1-1-0-0-0-0-0-0-0-0-|--2-2-2-2-2-2-2-2-2-2-2-2-2-2-2-2-|


                                                                      
----------------------------------|----------------------------------|
----------------------------------|----------------------------------|
----------------------------------|--5-5-5-5-5-5-5-5-5-5-5-5-5-5-5-5-|
--2-2-2-2-2-2-2-2-2-2-2-2-2-2-2-2-|----------------------------------|


                                                                      
----------------------------------|----------------------------------|
----------------------------------|----------------------------------|
--5-5-5-5-5-5-5-5-5-5-5-5-2-2-2-2-|----------------------------------|
----------------------------------|--2-2-2-2-2-2-2-2-2-2-2-2-2-2-2-2-|


                                                                      
----------------------------------|----------------------------------|
----------------------------------|----------------------------------|
----------------------------------|--5-5-5-5-5-5-5-5-5-5-5-5-5-5-5-5-|
--2-2-2-2-2-2-2-2-2-2-2-2-2-2-2-2-|----------------------------------|


                                                           
----------------------------------|-----------------------|
----------------------------------|-----------------------|
--5-5-5-5-5-5-5-5-5-5-5-5-2-2-2-2-|--2-2-2-2-2------------|
----------------------------------|-----------------------|


                                                           
-----------------------|----------------------------------|
-----------------------|----------------------------------|
--4-4-4-4-4------------|----------------------------------|
-----------------------|--2-2-2-2-2-2-2-2-2-2-2-2-2-2-2-2-|


                                                                      
----------------------------------|----------------------------------|
----------------------------------|----------------------------------|
----------------------------------|--2-2-2-2-2-2-2-2-2-2-2-2-2-2-2-2-|
--5-5-5-5-5-5-5-5-5-5-5-5-5-5-5-5-|----------------------------------|


                                                                      
----------------------------------|----------------------------------|
----------------------------------|----------------------------------|
--4-4-4-4-4-4-4-4-4-4-4-4-4-4-4-4-|----------------------------------|
----------------------------------|--2-2-2-2-2-2-2-2-2-2-2-2-0-0-0-0-|


                                                                      
----------------------------------|----------------------------------|
----------------------------------|----------------------------------|
----------------------------------|----------------------------------|
--2-2-2-2-2-2-2-2-2-2-2-2-0-0-0-0-|--2-2-2-2-2-2-2-2-2-2-2-2-2-2-2-2-|


                                                                      
----------------------------------|----------------------------------|
----------------------------------|----------------------------------|
----------------------------------|--2-2-2-2-2-2-2-2-2-2-2-2-2-2-2-2-|
--5-5-5-5-5-5-5-5-5-5-5-5-5-5-5-5-|----------------------------------|


                                                                      
----------------------------------|----------------------------------|
----------------------------------|----------------------------------|
--5-5-5-5-5-5-5-5-4-4-4-4-4-4-4-4-|----------------------------------|
----------------------------------|--2-2-2-2-2-2-2-2-2-2-2-2-2-2-2-2-|


                                                                      
----------------------------------|----------------------------------|
----------------------------------|----------------------------------|
----------------------------------|--2-2-2-2-2-2-2-2-2-2-2-2-2-2-2-2-|
--5-5-5-5-5-5-5-5-5-5-5-5-5-5-5-5-|----------------------------------|


                                                              
----------------------------------|--------------------------|
----------------------------------|--------------------------|
--5-5-5-5-5-5-5-5-4-4-4-4-4-4-4-4-|--------------------------|
----------------------------------|--2--2--2--2--2--2--2--2--|


                                                                                
--------------------------|--------------------------|-------------------------|
--------------------------|--------------------------|-------------------------|
--------------------------|--2--2--2--2--2--2--2--2--|--0--0--0--0--2---0------|
--0--0--0--0--0--0--0--0--|--------------------------|----------------------3--|


                                                      
--------------------------|--------------------------|
--------------------------|--------------------------|
--------------------------|--------------------------|
--2--2--2--2--2--2--2--2--|--0--0--0--0--0--0--0--0--|


                                                                                
--------------------------|-------------------------|--------------------------|
--------------------------|-------------------------|--------------------------|
--2--2--2--2--2--2--2--2--|--------------5---4---2--|--------------------------|
--------------------------|--0--0--0--0-------------|--2--2--2--2--2--2--2--2--|


                                                                                
--------------------------|--------------------------|-------------------------|
--------------------------|--------------------------|-------------------------|
--------------------------|--2--2--2--2--2--2--2--2--|--0--0--0--0--2---0------|
--0--0--0--0--0--0--0--0--|--------------------------|----------------------3--|


                                                      
--------------------------|--------------------------|
--------------------------|--------------------------|
--------------------------|--------------------------|
--2--2--2--2--2--2--2--2--|--0--0--0--0--0--0--0--0--|


                                                                          
--------------------------|-------------------------|--11----------------|
--------------------------|-------------------------|--11----------------|
--2--2--2--2--2--2--2--2--|--0--0--0--0--2---0------|--9-----------------|
--------------------------|----------------------3--|--------------------|


                                                              
------------------|--------------------|---------------------|
------------------|---------4----------|---------4--3--------|
------------------|--------------------|---------------------|
------------------|--2-----------------|--2------------------|


                                                                
--------------------|---------------------|--------------------|
---------4----------|---------4--3--------|---------4----------|
--------------------|---------------------|--------------------|
--2-----------------|--2------------------|--2-----------------|


                                                                 
---------------------|--------------------|---------------------|
---------4--3--------|---------4----------|---------4--3--------|
---------------------|--------------------|---------------------|
--2------------------|--2-----------------|--2------------------|


                                                                
--------------------|---------------------|--------------------|
---------4----------|---------4--3--------|---------4----------|
--------------------|---------------------|--------------------|
--2-----------------|--2------------------|--2-----------------|


                                                                 
---------------------|--------------------|---------------------|
---------4--3--------|---------4----------|---------4--3--------|
---------------------|--------------------|---------------------|
--2------------------|--2-----------------|--2------------------|


                                                                
--------------------|---------------------|--------------------|
---------4----------|---------4--3--------|---------4----------|
--------------------|---------------------|--------------------|
--2-----------------|--2------------------|--2-----------------|


                                                                 
---------------------|--------------------|---------------------|
---------4--3--------|---------4----------|---------4--3--------|
---------------------|--------------------|---------------------|
--2------------------|--2-----------------|--2------------------|


                                                                
--------------------|---------------------|--------------------|
---------4----------|---------4--3--------|---------4----------|
--------------------|---------------------|--------------------|
--2-----------------|--2------------------|--2-----------------|


                       
---------------------||
---------4--3--------||
---------------------||
--2------------------||
Comments