Blind Guardian - Bright Eyes Chords & Tabs

 

Bright Eyes Chords & Tabs

Blind Guardian Chords & Tabs

Version: 1 Type: Tab 0 ratings
1 star 2 stars 3 stars 4 stars 5 stars
comments

Bright Eyes Tab

   
##################################################################################
# This file is the author's own work and represents their interpretation of the  #
# song. You may only use this file for private study, scholarship, or research.  #
##################################################################################

|                                                                      |
|    I Did it by my self cause all the others TABS that I Found of     | 
|    This song were wrong. Any Corrections, send  me a message!        | 
|                                                                      |

Band: Blind Guardian
Album: Imaginations from the other side
Song: Bright eyes
TAB by: Samuel Deluca {Bauru - Brazil} (coments - samuel@boleiro.zzn.com)


Intro
| |-----------------|------------------| |
|*|---5-----5-------|------------------|*| Repeat 2 times
| |---4-----5-----5-|------------------| |
| |---2-----3-----5-|--------4-5-4-3-2-| |
|*|-0-----0-------3-|--------2-3-2-1-0-|*|
| |-----------------|------------------| |

[ Tab from: http://www.guitartabs.cc/tabs/b/blind_guardian/bright_eyes_tab.html ]
Verse I                
  
       
| |---------------------------|--------------------------| |
|*|---------------------------|--------------------------|*| 
| |-9--9-/-12-----------------|-7--7-/-9-----------------| |
| |-7--7-/-10-----------------|-5--5-/-7-----------------| |
|*|---------------------------|--------------------------|*|
| |---------------------------|--------------------------| |


A  F  G   A  F  G  A  
====================    

(one guitar keep doing "Verse I" 2x)


bridge

| |--------------------------------------------| |
|*|--------------------------------------------|*| 
| |--------------------------------------------| |  Repeat 2X
| |-----7------------------------------7-------| |
|*|-----7------------------------------7-------|*|
| |-----5-----8-8--8-7-5---8-8--8-7-5--5-------| |

                                  (Bridge 2x)


Verse II
                  
       
        A5  A5  A5  A5           A5 
| |--------------------------------------------| |
|*|--------------------------------------------|*| 
| |--------------------------------------------| |  
| |------------------------7-5-----------------| |
|*|-------7---8---5---7--------8---7-----------|*|
| |-----5---5---5---5------------5-------------| |


Comments