Blessid Union Of Souls - Standing At The Edge Of The Earth Chords & Tabs

 

Standing At The Edge Of The Earth Chords & Tabs

Blessid Union Of Souls Chords & Tabs

Version: 1 Type: Tab 0 ratings
1 star 2 stars 3 stars 4 stars 5 stars
comments

Standing At The Edge Of The Earth Tab

   
Tabed: by Darryl Pynn 
This is a cool song, it's not hard to play.
I just tabed it lately so I may have a fiew corrections, If you want to find out if I 
have any e-mail me at(Darryl_pynn@Hotmail.com)

INTRO                     
|-----0-------0----|    |----3--1------0-|
|----3-3-----2-0---|    |---1--1------1--|
|---2---2---0---0--|3X  |--2---------0---|
|--0-------0-------|    |-3---------2----|
|------------------|    |----------3-----|
|------------------|    |----------------|



|-----0--------0----|    |----3--1---0----|             \
|----3-3--------3---|    |---1--1----1----|              \
|---2---2-----------|3X  |--2--------0----|               |
|--0---------0------|    |-3---------2----|               |
|-----------2-------|    |-----------3----|               |
|----------3--------|    |----------------|               |
                                                          |
                                                          |
I knew that this moment would come in time                |
That I'd have to let go and watch you fly                /
I know you're coming back so why am I dying inside      /


|-----0--------0----|    |----3--1-------|             \
|----3-3--------3---|    |---1--1--------|              \
|---2---2-----------|3X  |--2------------|               |
|--0---------0------|    |-3-------------|               |
|-----------2-------|    |---------------|               |
|----------3--------|    |---------------|               |
                                                         |
Are you searching for words that you can't find          |
Trying to hide your emotions but eyes don't lie         /
Guess there's no easy way to say goodbye               /

  Am        F        G      Em  F    I'll Be....
|---------------1------3--------1-----------|          \
|----1-1-------1-1------3-------1-----------|           \
|---2---2-----2---2------0------2--let the F|            |
|--2-----2---3-----3---------2--3----ring---|            |
|-0-------0-0-------0-2------2--------------|            |
|--------------------3----------------------|            |
                                                         |
So I'll be standing at the edge of the earth             |
Hoping that someday you'll come back again               |
I'll be standing at the edge of the earth               /
hoping for someday, someday                            /
[ Tab from: http://www.guitartabs.cc/tabs/b/blessid_union_of_souls/standing_at_the_edge_of_the_earth_tab.html ]
|-----0--------0----|    |----3--1---0----|            \
|----3-3--------3---|    |---1--1----1----|             \
|---2---2-----------|3X  |--2--------0----|              |
|--0---------0------|    |-3---------2----|              |
|-----------2-------|    |-----------3----|              |
|----------3--------|    |----------------|              |
                                                         |
                                                         |
Don't misunderstand what I'm trying to say               |
I don't want to let you leave this way                  /
I want you to know that I stand right by your side     /


  Am        F        G      Em  F    I'll Be....      \
                                                       \ And I know this may be                                  \
The very last time that we see each other cry            \
But whatever happens know that I'll....                  |
I'll be standing at the edge of the earth                |
Hoping that one day you'll come back again               |
I'll be standing at the edge of the earth hoping that    | someday You'll come back to me                           | I'll be praying for whatever it's worth                  | Believing that one day you'll come back to me           / I'll be standing at the edge of the earth              / Hoping for someday                                    /   
                                                     /
Am        F        G      Em  F 

And I know this may be 
The very last time that we see each other cry
But whatever happens know that I'll....

|-----------------------------------------|        \
|-----------------------------------------|         \
|--6----6----8----5-6---------------------|         |
|--6----7----9----6-7---------------------|         |
|--4----7----9----6-7---------------------|         |
|-------5----7----4-5---------------------|         |
I'll be standing at the edge of the earth           | 
Hoping that one day you'll come back again          |
I'll be standing at the edge of the earth hoping    |
that someday                                        |
You'll come back to me                              |
I'll be praying for whatever it's worth             /   
Believing that one day you'll come back to me      /   

|-----------------------------------------|             \
|-----------------------------------------|              \
|--6----6----8888888888888----------------|               |
|--6----7----9999999999999----------------| 5X            |
|--4----7----9999999999999----------------|               |
|-------5----7777777777777----------------|               |
                                                          |
I'll be standing at the edge of the earth                 |
Hoping for someday                                        |
Waiting for someday Believing in someday                  |
Praying for someday, I'll be....                          |
Longing for someday Clinging to someday                   |
Cherishing someday, I'll be....                           |
Thinking of someday Dreaming of someday                   |
Wishing for someday, I'll be....                          |
Living for someday Counting on someday                    |
Knowing that one day....                                 /
I will see you                                          /
Comments