Blessid Union Of Souls - South Hampton Avenue Chords & Tabs

 

South Hampton Avenue Chords & Tabs

Blessid Union Of Souls Chords & Tabs

Version: 1 Type: Tab 0 ratings
1 star 2 stars 3 stars 4 stars 5 stars
comments

South Hampton Avenue Tab

   
-----------------------------------------------------------------------------
			     SOUTH HAMPTON AVENUE - Blessid Union Of Souls
-----------------------------------------------------------------------------
Tabbed by: Anthony Chmiel (rhcp_guitarist @ Ultimate guitar
Email:anthony320chmiel@hotmail.com
Very underrated song In my opinion...i love it so much!
Tuning: Standard
Key: b = bend   ph = pinch harmonic   / = slide
[ Tab from: http://www.guitartabs.cc/tabs/b/blessid_union_of_souls/south_hampton_avenue_tab.html ]
Intro:
   C   Cadd9  Fmaj7
e|-0-0--x-0---0-----|
B|-1-1--3-1---1-----|
G|-0-0--1-0---2-----|
D|-2-2--2-2---3-----| x2
A|-3-3--3-3---------|
E|------------------|
Verse Part 1/Intro Part 2  
 C         Fmaj7
e|-0----------0-------------------|
B|-1----------1-------------------|
G|-0-strum----2-strum-------------|
D|-2----------3-------------------|
A|-3------------------------------|
E|--------------------------------|
a few times, add the 9 on to the C on
some strums then do this:
Verse Part 2:
   D         G
e|-----------3---------------------|
B|-3---------3---------------------|
G|-2---------0---------------------|
D|-0---------0---------------------|
A|-----------2---------------------|
E|-----------3---------------------|
for "but she's not, she's not"
and for "yeah its on, but hes gone"
an electric strums this bit once over
an acoustic strumming this part
repeat once and thats the verses
chorus:
   C   G  Amin  Fmaj7
e|-0---3---0----0--------|
B|-1---3---1----1--------|
G|-0---0---2----2--------|
D|-2---0---2----3--------|
A|-3---2---0-------------|
E|-----3-----------------|
"We Live On South Hampton..."
Another Verse, this time with an electric
strumming the chord over the acoustic

electric bridge and solo: 
e|------------------|
B|------------------|
G|--7---------------|
D|--7--3------------|
A|--5--3------------|
E|-----1------------|


e|-----------------------------------|
B|-----------------------------------|
G|-----------------------------------|
D|-5-----------------5ph-------------|
A|----8-7------5-7/8------8-7/5------|
E|----------8-------------------8-5-3|

e|----------------------------------------------|
B|----------------------------------------------|
G|-7/9--9-9/10-10/12-12/14--12-10-9-7-----------|
D|----------------------------------------------|
A|-5/7--7-7/8--8/10--10/12--10--8-7-5-----------|
E|----------------------------------------------|

e|------------------------------|
B|------------------------------|
G|-7/9--9-9/10-10/12-12/14--12--|
D|------------------------------|
A|-5/7--7-7/8--8/10--10/12--10--|
E|------------------------------|

now the chorus and verse/intro repeated

enjoi!
Comments