Bleeding Romance - Today Is Tomorows Yesterday Chords & Tabs

 

Today Is Tomorows Yesterday Chords & Tabs

Bleeding Romance Chords & Tabs

Version: 1 Type: Tab 0 ratings
1 star 2 stars 3 stars 4 stars 5 stars
comments

Today Is Tomorows Yesterday Tab

   
-----------------------------------------------------------------------------
	         Today is Tomorow's Yesterday - Bleeding Romance
-------------------------------------------------------------------------------
Tabbed by: hoticeubes	

Hey everyone this is a great and catchy song by an up-and-coming band! They Rock! 

Tuning: drop D

| ~  let note ring
| +  harmonic
| x  Palm Mute

Intro:
e|--9-----------9--7-|
B|-----9---7---------|X4
G|-----------8-------|
D|-------------------|
A|-------------------|
E|77-77-77-77-77-77--|
  xx xx xx xx xx xx

Verse:
e|-------------------------------|
B|-------------------------------|X4
G|-------------------------------|
D|55555555-121212-7777-2222-5555-|
A|55555555--------7777-2222-5555-|
E|77777777-101010-5555-0000-3333-|
           x x x   
Chorus:
e|--------------------------------------|
B|--------------------------------------|X4
G|9-9-9-9-------------------------------|
D|9-9-9-9-1212121212121212-53-4444-6666-|
A|9-9-9-9------------------53-4444-6666-|
E|9-9-9-9-1010101010101010-75-2222-4444-|
  + + + +                     x x
[ Tab from: http://www.guitartabs.cc/tabs/b/bleeding_romance/today_is_tomorows_yesterday_tab.html ]
Bridge:
e|9--------9--7---9--------9------9--------9--7--12~~~~~~~~~----------9--7-|
B|--9--7------------9--7------------9--7-----------------------------------|X1
G|-------8---------------8---------------8---------------------------------|
D|------------------------------------------------------------2222222------|
A|------------------------------------------------------------2222222------|
E|--------------0------------0--2-----------------------------0000000------|
	                                                      xxxxxxx
Chorus:
e|--------------------------------------|
B|--------------------------------------|X6
G|9-9-9-9-------------------------------|
D|9-9-9-9-1212121212121212-53-4444-6666-|
A|9-9-9-9------------------53-4444-6666-|
E|9-9-9-9-1010101010101010-75-2222-4444-|
  + + + +                     x x

Outro:
e|9---9---9---9---9---9---9--12--15~~~~~~-------|
B|--9---9---9---9---9---9-----------------------|
G|----------------------------------------------|
D|----------------------------------------2~~~~-|
A|----------------------------------------2~~~~-|
E|----------------------------------------0~~~~-|


and thats it, enjoy
Comments