Bleach - Super Good Feeling Chords & Tabs

 

Super Good Feeling Chords & Tabs

Bleach Chords & Tabs

Version: 1 Type: Bass Tab 0 ratings
1 star 2 stars 3 stars 4 stars 5 stars
comments

Super Good Feeling Bass Tab

   
Song: "Super Good Feeling"
Artist: "Bleach"
off of their newest release "Static"
from Forefront Records
(c) 1998
tabbed by "pbear55@hotmail.com

this song's really easy
and todd once again stretches his fingers
for that 3 fret stretch:

g----------------------------------------------------------------------
d----------------------------------------------------------------------
a-----------------------------------------------------------------------
e--4-4-2-4-4---2-4-4-2-4-4---------------------------------------

staying simple, he then switches to hitting single notes that he lets
ring

"every day"
g-------------------------------------------------------------
d-------------------------------------------------------------
a------4--------------------------------------------------------
e--2-----------------------------------------------------------

but, alas, he gets more tricky with the bridge to the chorus
here, you just need to catch how he plays it with your ear
but, as tricky as it sounds, he uses only two notes...

"i just can't wait to see you there........"
[ Tab from: http://www.guitartabs.cc/tabs/b/bleach/super_good_feeling_btab.html ]
g-------------------------------------------------------------------------
d--------------------------------------------------------------------------
a---------------------------------------------------------------------------
e--2-4-2-4-2-4-2-4-2-4-4-4-4----------------------------------------

then we switch to the chorus:

g----------------------------------------------------------------------------
d-----------------------------------------------------------------------------
a--2-2---------------------------------------------------------------------------
e-------2-2--0-0--0-0--0-0-0-----------------------------------------------

Now in the middle of the song they hit us with a key change
here todd slides in to some beautiful sounding octaves

g---------------------------------------------------------------------------
d---------------------------------------------------------------------------
a--//9-9--7-7--//14-14---//9-9--7-7------------------------------------
e------------------------------------------7-7--7-7-7--7-7---------------

after the change the chorus goes like this:

g------------------------------------
d-------------------------------------
a--4-4-------------------------------
e--------4-4---2-2--2-2--2-2-2---

that's about it
anything i missed tell me.................

Comments