Bleach - Rundown Town Chords & Tabs

 

Rundown Town Chords & Tabs

Bleach Chords & Tabs

Version: 1 Type: Bass Tab 0 ratings
1 star 2 stars 3 stars 4 stars 5 stars
comments

Rundown Town Bass Tab

   
Band: Bleach
Song: Rundown Town
Album: Static
Tabbed by: Matt (MC) My e-mail is mlit37@yahoo.com

"~" means "let ring"
(I'm just gonna write the whole 1st Verse out cuz it is a little confussing.)
-Intro/Verse1- 
G|------------------------------------------------------|
D|------------------------------------------------------|
A|-10~----14~----7~--------9-10~----14~----7~------9-10~|
E|------------------------------------------------------|

G|------------------------------------------------------|
D|------------------------------------------------------|
A|-14~----7~--------9-10~----14~----7~--------9-10~-----|
E|------------------------------------------------------|

G|------------------------------------------------------|
D|------------------------------------------------------|
A|-14~----7~--------9-10~-------------------------------|
E|------------------------------------------------------|

There is no bass in the Chorus
"/" means "slide" (but slide lightly)

-Verse2-
G|------------------------------------------------------|
D|------------------------------------------------------|
A|------------------------------------------------------|
E|--3-3-33-3/7-7-77-0-0-00-0-0-0-00---------------------|x2 
[ Tab from: http://www.guitartabs.cc/tabs/b/bleach/rundown_town_btab.html ]
-Chorus2-
G|---------------------------------------------------------|
D|---------------------------------------------------------|
A|---------------------------------------------------------|
E|-3-3-333-0-3-3-333-3-4-0-0-000-0-0-0-000-2-3-3-333-0-3-3-|

G|---------------------------------------------------------|
D|---------------------------------------------------------|
A|---------------------------------------------------------|
E|333-3-4-0-0-000-0-0-0-000-2-3-3-333-0-3-3-333-4-0-0-000-0|

G|---------------------------------------------------------|
D|---------------------------------------------------------|
A|---------------------------------------------------------|
E|-0-0-000-2-3-3-333-0-3-3-333-4-0-0-000-0-0-0-000---------|

-Interlude- (when kinda an Interlude, its a little more rockier then the other
verses. so thats what made me call it an Interlude.)

G|------------------------------------------------------|
D|------------------------------------------------------|
A|------------------------------------------------------|
E|-3-3-333/7-7-777-0-0-0-000-0-0-0-000------------------|x3
when he is singing and then play it however many times needed in the next part.

-Last Verse- (soft part) (slide ####### these slides
G|-----------------------------------------------------|
D|-----------------------------------------------------|
A|-10~----/14~----/7~--------/10~----/14~----/7~-------|
E|-----------------------------------------------------|

And that is it! i think thins is pretty precise, but if there are any quetion or
anything e-mail me at mlit37@yahoo.com. Thanks so much "ultimate-guitar"!! peace.
Comments