Bleach - Eleven Chords & Tabs

 

Eleven Chords & Tabs

Bleach Chords & Tabs

Version: 2 Type: Bass Tab 0 ratings
1 star 2 stars 3 stars 4 stars 5 stars
comments

Eleven Bass Tab

Eleven
Bleach
Space
tabbed by jared gardner     punkrawkfreak@hotmail.com

there are two parts to the verse, just play them alternately

verse riff 1
G|--------------------------|
D|--------------------------|
A|--------------2-3-2-3-2---|
E|-0----0-0---0-----------0-|
[ Tab from: http://www.guitartabs.cc/tabs/b/bleach/eleven_btab_ver_2.html ]
verse riff 2
G|------------------------|
D|------------------------|
A|------------------------|
E|-0----0-0---0-0---0-0-3-|

chorus
G|-----------------------------------------------------------------|
D|-----------------------------------------------------------------|
A|-3-3-3-3-2-2-2-2-----------------3-3-3-3-2-2-2-2-----------------|
E|-----------------3-3-3-3-5-5-5-5-----------------0-0-0-0-0-0-0-0-|

i think that's it, it's a pretty easy song . . . if i missed something,
just tell me:  punkrawkfreak@hotmail.com
Comments