Bleach - Child Of Sod Chords & Tabs

 

Child Of Sod Chords & Tabs

Bleach Chords & Tabs

Version: 1 Type: Bass Tab 0 ratings
1 star 2 stars 3 stars 4 stars 5 stars
comments

Child Of Sod Bass Tab

Author/Artist: Bleach
Title: Child of Sod
Album: Space
Transcribed by: Kenny Bochat
Email: KRBX3@email.msn.com

verse1

------------------------------------------------------------------------------
------------------------------------------------------------------------------
------------------------------------------333333333333333333------------------
-1-333--1-333--1-333--1-333--1333---------------------------------------------
                                      chorus bridge                           

------------------------------------------------------------------------------
------------------------------------------------------------------------------
-33333333---12-12-12-12-12-12-12---10-10-10-10-10-10-10-----12-12----12-12----
------------------------------------------------------------------------------
 chorus                                                                       
[ Tab from: http://www.guitartabs.cc/tabs/b/bleach/child_of_sod_btab.html ]
------------------------------------------------------------------------------
------------------------------------------------------------------------------
-----------------------------------------3333333333333333333333333333333333---
-1-333--1-333--1-333--1-333--1-333--------------------------------------------
 verse2                               chorus(   double what u did last time)  

------------------------------------------------------------------------------
------------------------------------------------------------------------------
-3333333---12-12-12-12-12-12-12---10-10-10-10-10-10-10------------------------
------------------------------------------------------------------------------
 chorus                                                repeat                 

------------------------------------------------------------------------------
------------------------------------------------------------------------------
-33-33-------33-33------------------------------------------------------------
-------1-3---------1-3--------------------------------------------------------
 bridge(true bridge not chorus bridge)   go back to chorus to finish song     


Comments