Blaze - Meant To Be Chords & Tabs

 

Meant To Be Chords & Tabs

Blaze Chords & Tabs

Version: 1 Type: Bass Tab 0 ratings
1 star 2 stars 3 stars 4 stars 5 stars
comments

Meant To Be Bass Tab

   
Standard Tuning

Song stars after bass solo in "truth is Reavealed"

Part a - This may only be played on the second cycle.
It is quiet the first time round if it is played

|-----------------|-----------------|
|-----------------|-----------------|
|-----------------|-----------------|
|-9---------------|-5---------------|

Part b

|-----------------|-----------------|-----------------|-----------------|
|-----------------|-----------------|-----------------|-----------------|
|-----------------|-----------------|-----------------|-----------------|
|-7---------------|-5---------------|-3---------------|-------------5---|

Part c

|-----------------|-----------------|-----------------|-----------------|
|-----------------|-----------------|-----------------|-----------------|
|-------9---------|-------7---------|-----------------|-----------------|
|-7-----------7---|-5-----------5---|-3---------------|-------------5---|

Part d
[ Tab from: http://www.guitartabs.cc/tabs/b/blaze/meant_to_be_btab.html ]
|-----------------|-----------------|-----------------|-----------------|
|-----------------|-----------------|-----------------|-----------------|
|-------9---------|-------7---------|-----------------|-----------------|
|-7-----------7---|-5-----------5---|-3-------0-3---0-|-3-3---3-3-3-5---|

Part e

|-----------------|-----------------|-----------------|-----------------|
|-----------------|-----------------|-----------------|-----------------|
|-----------------|-----------------|-----------------|-----------------|
|-0---------------|-----------------|-----------------|-----------------|

|-----------------|-----------------|-----------------|-----------------|
|-----------------|-----------------|-----------------|-----------------|
|-----------------|-----------------|-----------------|-----------------|
|-0-0-0-0-0-0-0-0-|-0-0-0-0-0-0-0-0-|-0-0-0-0-0-0-0-0-|-0-0-0-0-0-0-0-0-|

Part f - this is the slow bit at the end. it's really uneven so listen to it first.

|-----------------|-----------------|-----------------|-----------------|
|-----------------|-----------------|-----------------|-----------------|
|-----------------|-----------------|-----------------|-----------------|
|-0---------------|-3---------------|-5---------------|-7---------------|

|-----------------|-----------------|-----------------|
|-----------------|-----------------|-----------------|
|-----------------|-----------------|-----------------|
|-0---------------|-10--------------|-12--------------|
Comments