Blaze - Life And Death Chords & Tabs

 

Life And Death Chords & Tabs

Blaze Chords & Tabs

Version: 1 Type: Tab 0 ratings
1 star 2 stars 3 stars 4 stars 5 stars
comments

Life And Death Tab

Band - BLAZE
Song - Life And Death
Album - Blood And Belief
Tabbed - Chris Kahui
E-mail - ironmaiden1977@msn.com

Tunned In Drop D

Intro Guitar 01
e---------------------------------------------------------------------------|
b---------------------------------------------------------------------------|
g--10-----10-----12----12----13----13----12----13--12-----------------------|
d-----10-----10-----10----10----10----10----10------------------------------|
a---------------------------------------------------------------------------|
d---------------------------------------------------------------------------|

Intro Guitar 02
e---------------------------------------------------------------------------|
b---------------------------------------------------------------------------|
g---------------------------------------------------------------------------|
d---------------------------------------------------------------------------|
a--3------------5------------6-----------5----------------------------------|
d--3------------5------------6-----------5----------------------------------|

Guitar 01
e---------------------------------------------------------------------------|
b---------------------------------------------------------------------------|
g--10-----10-----12----12-------8--10--8--10--8-----------------------------|
d-----10-----10-----10------10-------------------10b11r10b11r10*------------|
a---------------------------------------------------------------------------|
d---------------------------------------------------------------------------|

Guitar 02
e---------------------------------------------------------------------------|
b---------------------------------------------------------------------------|
g---------------------------------------------------------------------------|
d---------------------------------------------------------------------------|
a--3------------5------------6-----------5----------------------------------|
d--3------------5------------6-----------5----------------------------------|

Guitar 01
e---------------------------------------------------------------------------|
b---------------------------------------------------------------------------|
g--10-----10-----12----12----13----13----12----13--12-----------------------|
d-----10-----10-----10----10----10----10----10------------------------------|
a---------------------------------------------------------------------------|
d---------------------------------------------------------------------------|

Guitar 02
e---------------------------------------------------------------------------|
b---------------------------------------------------------------------------|
g---------------------------------------------------------------------------|
d---------------------------------------------------------------------------|
a--3------------5------------6-----------5----------------------------------|
d--3------------5------------6-----------5----------------------------------|

Guitar 01
e---------------------------------------------------------------------------|
b---------------------------------------------------------------------------|
g--10-----10-----12----12-------8--10--8--10--8-----------------------------|
d-----10-----10-----10------10-------------------10b11r10b11r10*------------|
a---------------------------------------------------------------------------|
d---------------------------------------------------------------------------|

Guitar 02
e---------------------------------------------------------------------------|
b---------------------------------------------------------------------------|
g---------------------------------------------------------------------------|
d---------------------------------------------------------------------------|
a--3------------5------------6-----------5----------------------------------|
d--3------------5------------6-----------5----------------------------------|

Verse 01
e---------------------------------------------------------------------------|
b---------------------------------------------------------------------------|
g-----0------------------1--------------------0------------------1----------|
d---3---3-----3--------3---3-----3----------3---3-----3--------3------------|
a-3---------3---3----4---------4---4------3---------3---3----4--------------|
d---------------------------------------------------------------------------|

e---------------------------------------------------------------------------|
b---------------------------------------------------------------------------|
g-----0------------------1--------------------0------------------1----------|
d---3---3-----3--------3---3-----3----------3---3-----3--------3------------|
a-3---------3---3----4---------4---4------3---------3---3----4--------------|
d---------------------------------------------------------------------------|

e---------------------------------------------------------------------------|
b---------------------------------------------------------------------------|
g-----0------------------1--------------------0------------------1----------|
d---3---3-----3--------3---3-----3----------3---3-----3--------3------------|
a-3---------3---3----4---------4---4------3---------3---3----4--------------|
d---------------------------------------------------------------------------|

e---------------------------------------------------------------------------|
b---------------------------------------------------------------------------|
g-----0------------------1--------------------0------------------1----------|
d---3---3-----3--------3---3-----3----------3---3-----3--------3------------|
a-3---------3---3----4---------4---4------3---------3---3----4--------------|
d---------------------------------------------------------------------------|

e---------------------------------------------------------------------------|
b---------------------------------------------------------------------------|
g-----0------------------1--------------------0------------------1----------|
d---3---3-----3--------3---3-----3----------3---3-----3--------3------------|
a-3---------3---3----4---------4---4------3---------3---3----4--------------|
d---------------------------------------------------------------------------|

Pre Chorus Both Guitars
e---------------------------------------------------------------------------|
b---------------------------------------------------------------------------|
g---------------------------------------------------------------------------|
d---------------------------------------------------------------------------|
a----3-2-1-0-3------------3-2-1-0-3-----------------------------------------|
d--3--------------5-7-5-3-----------5-7-------------------------------------|

e---------------------------------------------------------------------------|
b---------------------------------------------------------------------------|
g---------------------------------------------------------------------------|
d---------------------------------------------------------------------------|
a----------3-2-1-0-3----------------3-2-1-0-3----------------12/------------|
d--5-7-5-3------------------5-7-5-0-----------5-7---------------------------|

Chorus
Guitar 01
e---------------------------------------------------------------------------|
b---------------------------------------------------------------------------|
g--10-----10-----12----12----13----13----12----13--12-----------------------|
d-----10-----10-----10----10----10----10----10------------------------------|
a---------------------------------------------------------------------------|
d---------------------------------------------------------------------------|

Guitar 02
e---------------------------------------------------------------------------|
b---------------------------------------------------------------------------|
g---------------------------------------------------------------------------|
d---------------------------------------------------------------------------|
a--3------------5------------6-----------5----------------------------------|
d--3------------5------------6-----------5----------------------------------|

Guitar 01
e---------------------------------------------------------------------------|
b---------------------------------------------------------------------------|
g--10-----10-----12----12-------8--10--8--10--8-----------------------------|
d-----10-----10-----10------10-------------------10b11r10b11r10*------------|
a---------------------------------------------------------------------------|
d---------------------------------------------------------------------------|

Guitar 02
e---------------------------------------------------------------------------|
b---------------------------------------------------------------------------|
g---------------------------------------------------------------------------|
d---------------------------------------------------------------------------|
a--3------------5------------6-----------5----------------------------------|
d--3------------5------------6-----------5----------------------------------|

Guitar 01
e---------------------------------------------------------------------------|
b---------------------------------------------------------------------------|
g--10-----10-----12----12----13----13----12----13--12-----------------------|
d-----10-----10-----10----10----10----10----10------------------------------|
a---------------------------------------------------------------------------|
d---------------------------------------------------------------------------|

Guitar 02
e---------------------------------------------------------------------------|
b---------------------------------------------------------------------------|
g---------------------------------------------------------------------------|
d---------------------------------------------------------------------------|
a--3------------5------------6-----------5----------------------------------|
d--3------------5------------6-----------5----------------------------------|

Guitar 01
e---------------------------------------------------------------------------|
b---------------------------------------------------------------------------|
g--10-----10-----12----12-------8--10--8--10--8-----------------------------|
d-----10-----10-----10------10-------------------10b11r10b11r10*------------|
a---------------------------------------------------------------------------|
d---------------------------------------------------------------------------|

Guitar 02
e---------------------------------------------------------------------------|
b---------------------------------------------------------------------------|
g---------------------------------------------------------------------------|
d---------------------------------------------------------------------------|
a--3------------5------------6-----------5----------------------------------|
d--3------------5------------6-----------5----------------------------------|

Verse 02
e---------------------------------------------------------------------------|
b---------------------------------------------------------------------------|
g-----0------------------1--------------------0------------------1----------|
d---3---3-----3--------3---3-----3----------3---3-----3--------3------------|
a-3---------3---3----4---------4---4------3---------3---3----4--------------|
d---------------------------------------------------------------------------|

e---------------------------------------------------------------------------|
b---------------------------------------------------------------------------|
g-----0------------------1--------------------0------------------1----------|
d---3---3-----3--------3---3-----3----------3---3-----3--------3------------|
a-3---------3---3----4---------4---4------3---------3---3----4--------------|
d---------------------------------------------------------------------------|

Pre Chorus Both Guitars
e---------------------------------------------------------------------------|
b---------------------------------------------------------------------------|
g---------------------------------------------------------------------------|
d---------------------------------------------------------------------------|
a----3-2-1-0-3------------3-2-1-0-3-----------------------------------------|
d--3--------------5-7-5-3-----------5-7-------------------------------------|

e---------------------------------------------------------------------------|
b---------------------------------------------------------------------------|
g---------------------------------------------------------------------------|
d---------------------------------------------------------------------------|
a----------3-2-1-0-3----------------3-2-1-0-3----------------12/------------|
d--5-7-5-3------------------5-7-5-0-----------5-7---------------------------|

Chorus
Guitar 01
e---------------------------------------------------------------------------|
b---------------------------------------------------------------------------|
g--10-----10-----12----12----13----13----12----13--12-----------------------|
d-----10-----10-----10----10----10----10----10------------------------------|
a---------------------------------------------------------------------------|
d---------------------------------------------------------------------------|

Guitar 02
e---------------------------------------------------------------------------|
b---------------------------------------------------------------------------|
g---------------------------------------------------------------------------|
d---------------------------------------------------------------------------|
a--3------------5------------6-----------5----------------------------------|
d--3------------5------------6-----------5----------------------------------|

Guitar 01
e---------------------------------------------------------------------------|
b---------------------------------------------------------------------------|
g--10-----10-----12----12-------8--10--8--10--8-----------------------------|
d-----10-----10-----10------10-------------------10b11r10b11r10*------------|
a---------------------------------------------------------------------------|
d---------------------------------------------------------------------------|

Guitar 02
e---------------------------------------------------------------------------|
b---------------------------------------------------------------------------|
g---------------------------------------------------------------------------|
d---------------------------------------------------------------------------|
a--3------------5------------6-----------5----------------------------------|
d--3------------5------------6-----------5----------------------------------|

Guitar 01
e---------------------------------------------------------------------------|
b---------------------------------------------------------------------------|
g--10-----10-----12----12----13----13----12----13--12-----------------------|
d-----10-----10-----10----10----10----10----10------------------------------|
a---------------------------------------------------------------------------|
d---------------------------------------------------------------------------|

Guitar 02
e---------------------------------------------------------------------------|
b---------------------------------------------------------------------------|
g---------------------------------------------------------------------------|
d---------------------------------------------------------------------------|
a--3------------5------------6-----------5----------------------------------|
d--3------------5------------6-----------5----------------------------------|

Guitar 01
e---------------------------------------------------------------------------|
b---------------------------------------------------------------------------|
g--10-----10-----12----12-------8--10--8--10--8-----------------------------|
d-----10-----10-----10------10-------------------10b11r10b11r10*------------|
a---------------------------------------------------------------------------|
d---------------------------------------------------------------------------|
[ Tab from: http://www.guitartabs.cc/tabs/b/blaze/life_and_death_tab.html ]
Guitar 02
e---------------------------------------------------------------------------|
b---------------------------------------------------------------------------|
g---------------------------------------------------------------------------|
d---------------------------------------------------------------------------|
a--3------------5------------6-----------5----------------------------------|
d--3------------5------------6-----------5----------------------------------|

Interlude Both Guitars
e---------------------------------------------------------------------------|
b---------------------------------------------------------------------------|
g---------------------------------------------------------------------------|
d--10-10-10--10-10-10--10-10-10----13-13-13--13-13-13--13-13-13-------------|
a--8--8--8---8--8--8---8--8--8-----11-11-11--11-11-11--11-11-11-------------|
d---------------------------------------------------------------------------|

e---------------------------------------------------------------------------|
b---------------------------------------------------------------------------|
g--10-10-10--10-10-10--10-10-10----13-13-13--13-13-13--13-13-13-------------|
d--8--8--8---8--8--8---8--8--8-----11-11-11--11-11-11--11-11-11-------------|
a---------------------------------------------------------------------------|
d---------------------------------------------------------------------------|

Guitar 01
e---------------------------------------------------------------------------|
b---------------------------------------------------------------------------|
g---------------------------------------------------------------------------|
d--10-10-10--10-10-10--10-10-10----13-13-13--13-13-13--13-13-13-------------|
a--8--8--8---8--8--8---8--8--8-----11-11-11--11-11-11--11-11-11-------------|
d---------------------------------------------------------------------------|

Guitar 02
e---------------------------------------------------------------------------|
b--6------------------------------------------------------------------------|
g---------------------------------13------12------10------------------------|
d-----------------------10--------------------------------10----------------|
a---------------------------------------------------------------------------|
d---------------------------------------------------------------------------|

Guitar 01
e---------------------------------------------------------------------------|
b---------------------------------------------------------------------------|
g--10-10-10--10-10-10--10-10-10----13-13-13--13-13-13--13-13-13-------------|
d--8--8--8---8--8--8---8--8--8-----11-11-11--11-11-11--11-11-11-------------|
a---------------------------------------------------------------------------|
d---------------------------------------------------------------------------|

Guitar 02
e---------------------------------------------------------------------------|
b---------------------------------------------------------------------------|
g---------------------------------------------------------------------------|
d--11-----------------------------------------------------------------------|
a---------------------------------------------------------------------------|
d---------------------------------------------------------------------------|

Both Guitars
e---------------------------------------------------------------------------|
b---------------------------------------------------------------------------|
g---------------------------------------------------------------------------|
d---------------------------------------------------------------------------|
a-3-2-1--3----------3-2-1--3------------3-2-1--3----------3-2-1--3----------|
d----------3b5r3-------------3b5r3---------------3b5r3-------------3b5r3----|

Guitar 01
e---------------------------------------------------------------------------|
b---------------------------------------------------------------------------|
g---------------------------------------------------------------------------|
d--10-10-10--10-10-10--10-10-10----13-13-13--13-13-13--13-13-13-------------|
a--8--8--8---8--8--8---8--8--8-----11-11-11--11-11-11--11-11-11-------------|
d---------------------------------------------------------------------------|

Guitar 02
e---------------------------------------------------------------------------|
b--6------------------------------------------------------------------------|
g---------------------------------13------12------10------------------------|
d-----------------------10--------------------------------10----------------|
a---------------------------------------------------------------------------|
d---------------------------------------------------------------------------|

Guitar 01
e---------------------------------------------------------------------------|
b---------------------------------------------------------------------------|
g--10-10-10--10-10-10--10-10-10----13-13-13--13-13-13--13-13-13-------------|
d--8--8--8---8--8--8---8--8--8-----11-11-11--11-11-11--11-11-11-------------|
a---------------------------------------------------------------------------|
d---------------------------------------------------------------------------|

Guitar 02
e---------------------------------------------------------------------------|
b---------------------------------------------------------------------------|
g---------------------------------------------------------------------------|
d--11-----------------------------------------------------------------------|
a---------------------------------------------------------------------------|
d---------------------------------------------------------------------------|

Both Guitars
e---------------------------------------------------------------------------|
b---------------------------------------------------------------------------|
g---------------------------------------------------------------------------|
d---------------------------------------------------------------------------|
a-3-2-1--3----------3-2-1--3------------3-2-1--3----------3-2-1--3----------|
d----------3b5r3-------------3b5r3---------------3b5r3-------------3b5r3----|

Both Guitars
e----------------------|
b----------------------|
g----------------------|
d--10-10-10--10-10-10--|
a--8--8--8---8--8--8---|
d----------------------|

Verse 03
e---------------------------------------------------------------------------|
b---------------------------------------------------------------------------|
g-----0------------------1--------------------0------------------1----------|
d---3---3-----3--------3---3-----3----------3---3-----3--------3------------|
a-3---------3---3----4---------4---4------3---------3---3----4--------------|
d---------------------------------------------------------------------------|

e---------------------------------------------------------------------------|
b---------------------------------------------------------------------------|
g-----0------------------1--------------------0------------------1----------|
d---3---3-----3--------3---3-----3----------3---3-----3--------3------------|
a-3---------3---3----4---------4---4------3---------3---3----4--------------|
d---------------------------------------------------------------------------|

Pre Chorus Both Guitars
e---------------------------------------------------------------------------|
b---------------------------------------------------------------------------|
g---------------------------------------------------------------------------|
d---------------------------------------------------------------------------|
a----3-2-1-0-3------------3-2-1-0-3-----------------------------------------|
d--3--------------5-7-5-3-----------5-7-------------------------------------|

e---------------------------------------------------------------------------|
b---------------------------------------------------------------------------|
g---------------------------------------------------------------------------|
d---------------------------------------------------------------------------|
a----------3-2-1-0-3----------------3-2-1-0-3-------------------------------|
d--5-7-5-3------------------5-7-5-0-----------5-7---------------------------|

e---------------------------------------------------------------------------|
b---------------------------------------------------------------------------|
g---------------------------------------------------------------------------|
d---------------------------------------------------------------------------|
a----------3-2-1-0-3----------------3-2-1-0-3----------------12/------------|
d--5-7-5-3------------------5-7-5-0-----------5-7---------------------------|


Guitar 01
e---------------------------------------------------------------------------|
b---------------------------------------------------------------------------|
g--10-----10-----12----12----13----13----12----13--12-----------------------|
d-----10-----10-----10----10----10----10----10------------------------------|
a---------------------------------------------------------------------------|
d---------------------------------------------------------------------------|

Guitar 02
e---------------------------------------------------------------------------|
b---------------------------------------------------------------------------|
g---------------------------------------------------------------------------|
d---------------------------------------------------------------------------|
a--3------------5------------6-----------5----------------------------------|
d--3------------5------------6-----------5----------------------------------|

Guitar 01
e---------------------------------------------------------------------------|
b---------------------------------------------------------------------------|
g--10-----10-----12----12-------8--10--8--10--8-----------------------------|
d-----10-----10-----10------10-------------------10b11r10b11r10*------------|
a---------------------------------------------------------------------------|
d---------------------------------------------------------------------------|

Guitar 02
e---------------------------------------------------------------------------|
b---------------------------------------------------------------------------|
g---------------------------------------------------------------------------|
d---------------------------------------------------------------------------|
a--3------------5------------6-----------5----------------------------------|
d--3------------5------------6-----------5----------------------------------|

Guitar 01
e---------------------------------------------------------------------------|
b---------------------------------------------------------------------------|
g--10-----10-----12----12----13----13----12----13--12-----------------------|
d-----10-----10-----10----10----10----10----10------------------------------|
a---------------------------------------------------------------------------|
d---------------------------------------------------------------------------|

Guitar 02
e---------------------------------------------------------------------------|
b---------------------------------------------------------------------------|
g---------------------------------------------------------------------------|
d---------------------------------------------------------------------------|
a--3------------5------------6-----------5----------------------------------|
d--3------------5------------6-----------5----------------------------------|

Guitar 01
e---------------------------------------------------------------------------|
b---------------------------------------------------------------------------|
g--10-----10-----12----12-------8--10--8--10--8-----------------------------|
d-----10-----10-----10------10-------------------10b11r10b11r10*------------|
a---------------------------------------------------------------------------|
d---------------------------------------------------------------------------|

Guitar 02
e---------------------------------------------------------------------------|
b---------------------------------------------------------------------------|
g---------------------------------------------------------------------------|
d---------------------------------------------------------------------------|
a--3------------5------------6-----------5----------------------------------|
d--3------------5------------6-----------5----------------------------------|

Guitar 01
e---------------------------------------------------------------------------|
b---------------------------------------------------------------------------|
g--10-----10-----12----12----13----13----12----13--12-----------------------|
d-----10-----10-----10----10----10----10----10------------------------------|
a---------------------------------------------------------------------------|
d---------------------------------------------------------------------------|

Guitar 02
e---------------------------------------------------------------------------|
b---------------------------------------------------------------------------|
g---------------------------------------------------------------------------|
d---------------------------------------------------------------------------|
a--3------------5------------6-----------5----------------------------------|
d--3------------5------------6-----------5----------------------------------|

Guitar 01
e---------------------------------------------------------------------------|
b---------------------------------------------------------------------------|
g--10-----10-----12----12-------8--10--8--10--8-----------------------------|
d-----10-----10-----10------10-------------------10b11r10b11r10*------------|
a---------------------------------------------------------------------------|
d---------------------------------------------------------------------------|

Guitar 02
e---------------------------------------------------------------------------|
b---------------------------------------------------------------------------|
g---------------------------------------------------------------------------|
d---------------------------------------------------------------------------|
a--3------------5------------6-----------5----------------------------------|
d--3------------5------------6-----------5----------------------------------|

Guitar 01
e---------------------------------------------------------------------------|
b---------------------------------------------------------------------------|
g--10-----10-----12----12----13----13----12----13--12-----------------------|
d-----10-----10-----10----10----10----10----10------------------------------|
a---------------------------------------------------------------------------|
d---------------------------------------------------------------------------|

Guitar 02
e---------------------------------------------------------------------------|
b---------------------------------------------------------------------------|
g---------------------------------------------------------------------------|
d---------------------------------------------------------------------------|
a--3------------5------------6-----------5----------------------------------|
d--3------------5------------6-----------5----------------------------------|

Guitar 01
e---------------------------------------------------------------------------|
b---------------------------------------------------------------------------|
g--10-----10-----12----12-------8--10--8--10--8-----------------------------|
d-----10-----10-----10------10-------------------10b11r10b11r10*------------|
a---------------------------------------------------------------------------|
d---------------------------------------------------------------------------|

Guitar 02
e---------------------------------------------------------------------------|
b---------------------------------------------------------------------------|
g---------------------------------------------------------------------------|
d---------------------------------------------------------------------------|
a--3------------5------------6-----------5----------------------------------|
d--3------------5------------6-----------5----------------------------------|


Outro
e---------------------------------------------------------------------------|
b---6---5---9---8-------6---5---8---9-------6---5---9---8-------------------|
g---------------------------------------------------------------------------|
d---------------------------------------------------------------------------|
a---------------------------------------------------------------------------|
d---------------------------------------------------------------------------|
Comments