Blaze - For The Best Chords & Tabs

 

For The Best Chords & Tabs

Blaze Chords & Tabs

Version: 1 Type: Tab 0 ratings
1 star 2 stars 3 stars 4 stars 5 stars
comments

For The Best Tab

Intro
1------------------------------------------------
2------------------------------------------------
3------------------------------------------------
4------------------------------------------------
5---6-6-4-4-2-----2-2-4----2-2-4--6-6-4-4-2------
6-------------4-4-------2-2---------------------- X2
[ Tab from: http://www.guitartabs.cc/tabs/b/blaze/for_the_best_tab.html ]
Verse
1-------------------------------------
2-------------------------------------
3-------------------------------------
4----8--------------------------------
5----6-X5--8-----10-----6-------------
6----------6-X5---8-X5--4-X5---------- X8

Chorus
1-------------------------------------
2-------------------------------------
3-------------------------------------
4---8---------------------------------
5---6-X8--8-----10--------------------
6---------6-X4---8--10-8-6------------

Intro
Verse
Chorus
Intro
Verse
Intro
Chorus
Verse 
Chorus 
Intro
Comments