Blanks 77 - Punks N Skins Chords & Tabs

 

Punks N Skins Chords & Tabs

Blanks 77 Chords & Tabs

Version: 2 Type: Bass Tab 0 ratings
1 star 2 stars 3 stars 4 stars 5 stars
comments

Punks N Skins Bass Tab

Punks N Skins
by Blanks 77

Arha@Redrose.net


Intro and Chorus
G------------
D-5-5-5------
A------5--5-5
E------------

Verse
G-----------
D-----------
A------3-3-3
E-3-3-3-----
[ Tab from: http://www.guitartabs.cc/tabs/b/blanks_77/punks_n_skins_btab_ver_2.html ]
G-----------
D-----------
A------5-5-5
E-3-3-3-----

Solo
G---------------------------------
D---------------------------------
A-----------------1-1-1-1--3-3-3-3
E-1-1-1-1--3-3-3-3----------------
Comments