Blank Of Hope - Frienemy Chords & Tabs

 

Frienemy Chords & Tabs

Blank Of Hope Chords & Tabs

Version: 2 Type: Tab 0 ratings
1 star 2 stars 3 stars 4 stars 5 stars
comments

Frienemy Tab

   
Written by Alexander Mattias
Artist:Blank of Hope
Song:Make up your Mind
                             (guitar1)
Intro:e-0-0-7-0-5-0-4-5-0-Written by Alexander Mattias
Artist:Blank of Hope
Song:Frienemy
                                                  (guitar1)
Intro:e-----------------------------------------------------------|
      b-----------------------------------------------------------|
      g-----------------------------------------------------------|
      D-------11---14-------11----14-------12----11-------11-11-9-|x2
      A-12-12---12----12-12----12----12-12----12---12-12----------|
      E-----------------------------------------------------------|
                                                  (guitar2)
Verse/:e--------------------------------------------|
Intro  b--------------------------------------------|
       g--------------------------------------------|
       D-7777-7777-77-9-----------------------------|x2
       A-7777-5555-45-7-----------------------------|
       E-5555---------------------------------------|

Pre:e--------------------------------------------|
    b--------------------------------------------|
    g-------------------------------9------------|
    D-4444-4444-7777-7777-9999-9999-9------------|
    A-2222-2222-4444-4444-7777-7777-7------------|
    E--------------------------------------------|

Chorus:e-----------------------------------------|
       b-----------------------------------------|
       g-----------------------------------------|
       D-------------------------------7777-7777-|x3
       A-7777-7777-2222-2222-4444-4444-5555-5555-|
       E-5555-5555-0000-0000-2222-2222-----------|

       e---------------------------------|
       b---------------------------------|
       g-------------------------------7-|
       D-2222-2222-4444-4444-7777-7777-7-|
       A-0000-0000-2222-2222-5555-5555-5-|
       E---------------------------------|
                           (Bass)
Breakdown:g-------------------|
          D-------------------|
          A-0-0-4-0-5-0-4-2-0-|x4
          E-------------------|

Pick Slide

Bridge:e-00-00-22-33-----------------------|
       b-22-00-22-22-----------------------|
       g-22-11-22-33-----------------------|
       D-22-22-44-00-----------------------|x2
       A-00-22-44-xx-----------------------|
       E-xx-00-22-xx-----------------------|
[ Tab from: http://www.guitartabs.cc/tabs/b/blank_of_hope/frienemy_tab_ver_2.html ]
       e---------------------------------------------------3-|
       b-------------------------------7777-7777-7777-7777-2-|
       g-------------------------7-----7777-7777-7777-7777-3-|
       D-7-----7-7-----2-7-----4---7-9-5555-5555-5555-5555-0-|
       A---7-9-7---7-9-2---7-9-4---------------------------x-|
       E-------5-------0-------2---------------------------x-|

Finish on A:7
            7
            5


      b-------------------|
      g-------------------|
      D-------------------|x4
      A-------------------|
      E-------------------|
                             (guitar2)
Intro:e---------------------|
      b---------------------|
      g-9999-9999-----------|
      D-9999-9999-7777-7777-|x4
      A-7777-7777-7777-7777-|
      E-----------5555-5555-|

Verse:e----------------------------------------------------|
      b----------------------------------------------------|
      g-9xxxxxx--------------------------------------------|
      D-9xxxxxx-9xxxxxx-11xxxxxx-7xxxxxx-1111-(11)-777-----|x2
      A-7xxxxxx-9xxxxxx-11xxxxxx-7xxxxxx-1111-(11)-777-----|
      E---------7xxxxxx--9xxxxxx-5xxxxxx--9-9--(9)-555-----|

 +2x  e---------------  -------------|
      b---------------  -------------|
      g---------------  -------------|
      D-1111-(11)-777-x2-9999-9999-9-|
      A-1111-(11)-777-  -9999-9999-9-|
      E--9-9--(9)-555-  -7777-7777-7-|

Chorus:e-------------------------------------------------|
       b-------------------------------------------------|
       g-9999-9999---------------------------------------|
       D-9999-9999-7777-7777-----------------------------|x2
       A-7777-7777-7777-7777-11111111-11111111-9999-9999-|
       E-----------5555-5555--9-9-9-9--9-9-9-9-7777-7777-|

Verse:e---------------------------|
      b---------------------------|
2nd x g---------------------------|
      D-1111-(11)-777-9999-9999-9-|
      A-1111-(11)-777-9999-9999-9-|
      E--9-9--(9)-555-7777-7777-7-|
                                    (guitar2)
Bridge:e----------------------|
       b----------------------|
       g-----------------4,,,-|
       D-11,,,-7,,,-2,,,-4,,,-|x2
       A-11,,,-7,,,-2,,,-2,,,-|
       E--9,,,-5,,,-0,,,------|

       e----------------------|
       b----------------------|
       g-----------------4xxx-|
       D-11xxx-7xxx-2xxx-4xxx-|x2
       A-11xxx-7xxx-2xxx-2xxx-|
       E--9xxx-5xxx-0xxx------|
                                   (guitar1)
Bridge:improvise with e-0-2-4-5-7---------|
                      b-----------0-4-5-7-|
                      g-------------------|
                      D-------------------|
                      A-------------------|
                      E-------------------|

Outro:e-------|
      b-------|
      g-9-----|
      D-9-9-7-|
      A-7-9-7-|
      E---7-5-|
Comments