Blake Howard - Walking In The Air Chords & Tabs

 

Walking In The Air Chords & Tabs

Blake Howard Chords & Tabs

Version: 1 Type: Tab 0 ratings
1 star 2 stars 3 stars 4 stars 5 stars
comments

Walking In The Air Tab

walking in the air

tabbed by kt

e|-----0-0----------|-----0-0---------------|--------------------|---------------------|
b|---0-----3-3-0----|---0-----3-3-0---------|------1-1-0-0-------|---------------------|
g|------------------|------------------0-2--|----2---------2-----|------0-0------------|
d|------------------|-----------------------|--------------------|----2-----4-4-2------|
a|------------------|-----------------------|--------------------|---------------------|
E|------------------|-----------------------|--------------------|---------------------|

[ Tab from: http://www.guitartabs.cc/tabs/b/blake_howard/walking_in_the_air_tab.html ]
e|------------------|-----------------------|--------0-----------|---------------------|
b|------------------|------------0----------|----2-3------2------|---------------------|
g|------------------|--------0-2------------|---------------2----|--------0-2----------|
d|-----1-2-4--------|-----------------------|--------------------|------3--------------|
a|------------------|-----------------------|--------------------|---------------------|
E|------------------|-----------------------|--------------------|---------------------|


e|------------------|---0---------
b|-----3-0-2--------|-0------4-0--
g|------------------|-------------    then back 2 the beginning
d|------------------|-------------
a|------------------|-------------
E|------------------|-------------

im 100% possitive this is rite so enjoy!
Comments