Blacktop Recess - Good Evening Stunning Chords & Tabs

 

Good Evening Stunning Chords & Tabs

Blacktop Recess Chords & Tabs

Version: 1 Type: Bass Tab 1 rating
1 star 2 stars 3 stars 4 stars 5 stars
comments

Good Evening Stunning Bass Tab

Good Evening Stunning (drop C)
written by Andress, Bartsch, Bray, Froese and Wolfe.

Verse 1 X2

-----------------------------------------------------------
-----------------------------------------------------------
-----------------------------------------------------------
-88888888888888888888888888888888--0-------7-0-----------7-

Pre Chorus
-----------------------------------------------------
-----------------------------------------------------
-----------------------------------------------------
-8^--------------------------------------------------

Chorus 1 

---------------------------------------------------------
---------------------------------------------------------
-------7h8-8-8-------7h8-8-8-----------------------------
-0-0-0---------0-0-0---------8-8-8-8*---8-8-8-8h10-10-10-

Chorus 2
[ Tab from: http://www.guitartabs.cc/tabs/b/blacktop_recess/good_evening_stunning_btab.html ]
--------------------------------------{0}----------------
---------------------------------------------------------
-------7h8-8-8-------7h8-8p7-----------------------------
-0-0-0---------0-0-0---------8-8-8-8*---8-8-8-8h10-10-10-

Chorus 3

-----------------------------------------------------
-----------------------------------------------------
-------10p8-7h8-------7h8-8p7------------------------
-0-0-0----------0-0-0---------8-8-8-8--8-8-8-8p7-7-7-

Chorus 4 X2

-----------------------------------------------------
-----------------------------------------------------
-----------------------------------------------------
-3-3-3-3-3-3-0-0-0-0-0-0-8-8-8-8-8-8-7-7-7-7-7-7h8---

Verse 2

-----------------------------------------------------
-----------------------------------------------------
-----------------------------------------------------
-7--0-----7------------------------------------------

Verse 1 X2

Pre Chorus

Chorus 1

Chorus 2

Chorus 3

Chorus 4

Bridge (0-0-0 going into it) 4X (end with 0)

-----------------------------------------------------
-----------------------------------------------------
-----------------------------------------------------
-88-8888-8-8-8-8-10-10-10-00-0000-0-0-0-0-10-10-10---

www.blacktoprecess.tk
Comments