Blackstar Rising - New Song Chords & Tabs

 

New Song Chords & Tabs

Blackstar Rising Chords & Tabs

Version: 1 Type: Tab 0 ratings
1 star 2 stars 3 stars 4 stars 5 stars
comments

New Song Tab

---------------------------------------------

Blackstar - New Song
>From the album Barbed wire soul

---------------------------------------------

Transcribed by: Johan Henriksson
E-mail: n96johh@tycho.helsingborg.se

---------------------------------------------

Well, here goes...

Riff 1
e|------------------------------------------|
B|------------------------------------------|
G|------------------------------------------|
D|---------------5-------------5\4----------|
A|-5/7-----5/7---3---5-5/7-----3\2---5----5-|
E|-3/5-----3/5-0---0-3-3/5---------0-3--0-3-|
[ Tab from: http://www.guitartabs.cc/tabs/b/blackstar_rising/new_song_tab.html ]
e|-----------------------------------------|
B|-----------------------------------------|
G|-----------------------------------------|
D|---------------5-------------5\4---7---5-|
A|-5/7-----5/7---3---5-5/7-----3\2-0-5-0-3-|
E|-3/5-----3/5-0---0-3-3/5-----------------|

Riff 2
Guitar 1
e|-----------------------|
B|-----------------------|
G|-----------------------|
D|-5---------------------|
A|-3---let-ring----------|
E|-----------------------|

Guitar 2
e|-----------------------|---|-----|
B|-----------------------|---|-----|
G|---------3-----------3-|---|-<5>-|
D|-----3-5---5-3---3-5---|-5-|-----|
A|-3-5-----------5-------|---|-----|
E|-----------------------|---|-----|

Riff 3
e|------------------|-----------------|
B|------------------|-----------------|
G|------------------|-----------------|
D|------------------|-------7---7-7\5-|
A|-4---7-2--------3-|-4---7-5---5-5\3-|
E|-2-0-5-0--0-0-0-1-|-2-0-5-----------|

End
e|--------|
B|--------|
G|--------|
D|--------|
A|-----5\-|
E|-0-0-3\-|
Comments