Blackmail - Arcese Chords & Tabs

 

Arcese Chords & Tabs

Blackmail Chords & Tabs

Version: 1 Type: Tab 0 ratings
1 star 2 stars 3 stars 4 stars 5 stars
comments

Arcese Tab

   
Song :Arcese
Artist :Blackmail
Album :Foe E.P
for info go to: www.blackmail-music.com


Bass intro :
---4---3-4---4-----4---3-4---4---|
-2---2-----2---2-2---2-----2---2-|
---------------------------------|
---------------------------------| x4

Verse : play this bass melody on 2nd verse
E                                Dm
---4---3-4---4-----4---3-4---4-----2---1-2---2-----2---1-2---2---|
-2---2-----2---2-2---2-----2---2-0---0-----0---0-0---0-----0---0-|
-----------------------------------------------------------------|
-----------------------------------------------------------------|

G#m                              C
---8---7-8---8-----8---7-8---8-----5---4-5---5-----5---4-5---5---|
-6---6-----6---6-6---6-----6---6-2---2-----2---2-2---2-----2---2-|
-----------------------------------------------------------------|
-----------------------------------------------------------------|

Chorus :
E5  G5  C5  A5
E5  G5  C5  A5

Verse :

Chorus :
[ Tab from: http://www.guitartabs.cc/tabs/b/blackmail/arcese_tab.html ]
Bridge :
-----------------------------------------------------------------|
-----------------------------------------------------------------|
-13------------------------------6-------------------------------|
-----------------------------------------------------------------|
-11------------------------------4-------------------------------|
-----------------------------------------------------------------|
|
-----------------------------------------------------------------|
-----------9-------------9-9---------------7---------------------|
-7-----7-------7-7---7-----------5-----5-------5-5---5---5-5-----|
-----7-------------7---7-----7-------5-------------5---5-----5---|


-----------------------------------------------------------------|
-----------------------------------------------------------------|
-11------------------------------4-------------------------------|
-----------------------------------------------------------------|
-9-------------------------------2-------------------------------|
-----------------------------------------------------------------|
|
------------------------------------------------------------------|
-----------9-------------9-9--------------------------------------|
-7-----7-------7-7---7-------7------------------------------------|
-----7-------------7---7---------8---8-8---8---8---8-8-8-10-10-10-|

Outro (like verse) :
Comments