Blackfoot - Highway Song Chords & Tabs

 

Highway Song Chords & Tabs

Blackfoot Chords & Tabs

Version: 1 Type: Tab 1 rating
1 star 2 stars 3 stars 4 stars 5 stars
comments

Highway Song Tab

Highway Song by Blackfoot
Transcribed by Darin- darinmail@mauimail.com

I was suprised I didn’t find this song here, and after several unsuccessful attempts at requesting it, I went ahead and tried to figure it out for myself, so here it is(the first riffs, at least):

E------------0--------------------------------------------------|
B----------------0---------------------0------------0---------|
G-------------------0--------------0-----0------0----0------|
D--------2-------------0---------------------0----------------|
A-----2--------------------3-----------------------------------|
E--0------------------------------------------------------------|

E------------0--------------------------------------------------|
B----------------0---------------------0------------0---------|
G-------------------0--------------0-----0------0----0------|
D--------2-------------0---------------------0----------------|
A-----2--------------------3-----------------------------------|
E--0------------------------------------------------------------|
[ Tab from: http://www.guitartabs.cc/tabs/b/blackfoot/highway_song_tab.html ]
E---------------------------------------------------0----------------------------------------|
B------1----------3-1-----------------3-------------3--------------------------3---------|
G---------0--------------------------------2---------------------------------0------0-----|
D-------------2-----------------0-------------0------------------0------2-----------------|
A--3--------------------0p2-----------------------------0p2-----------------------------|
E------------------------------------2--------------------------------0---------------------|

E---------------------------0----------------|
B--------------0---------------0-------------|
G------------------2---------------2---------|
D----------------------1---------------1-----|
A--0--1--2----------------------------------|
E---------------------------------------------|

Another Day another dollar
After I sing and holler
It’s my way of living and I can’t change a thing
Another town is growin near
Oh baby I wish you were here
And the only way I can see you darlin is in my dreams.

It’s a highway song
singing on and on
On and on

Well the hurt you leave behind
Is the hurt that’s on your mind
Oh and last night’s show took its toll on me
Well the city lights fly by me
As I lay my body in my bed
Oh and dreams of you dance through my head

It’s a Highway song
Singing on and on
on and on
Highway Song
Is as lonely
As the Road I’m on

Yeah the big wheels are ready to roll
We’ve been flying high and so low
Lord all this madness ain’t as crazy as it seems
Everywhere they stop and stare
I’m just a stranger on this road 
Oh I stand alone only in my dreams.

Highway Song
Singing on and on
On and on
Highway song
Is as lonely 
As the road I’m on

Highway Song
Singing on and on
On and on
Highway song
Is as lonely 
As the road I’m on

(cut to solo)
Comments