Black Torment - Witchcraft Chords & Tabs

 

Witchcraft Chords & Tabs

Black Torment Chords & Tabs

Version: 1 Type: Tab 0 ratings
1 star 2 stars 3 stars 4 stars 5 stars
comments

Witchcraft Tab

Black Torment (U.S.A) - Witchcraft (Demo 1997')

X = Mute
/  = Slide

Riff One (Intro) (8 Times)


|--------------------|
|--------------------|
|--------------------|
|-3-------3-------1--|
|-3-XXX-1-XXX-1------|
|-1-XXX-1-XXX-3------|
____________________

Riff Two (Six Times)


|-----------------------------|
|-----------------------------|
|-----------------------------|
|-----------------------------|
|-111-111-333-111-333---------|
|-xxx-111-333-xxx-555---------|
______________________
Riff Three (Hard, Play fast and steady)
[ Tab from: http://www.guitartabs.cc/tabs/b/black_torment/witchcraft_tab.html ]
|-------------------------------------7---------------|
|-------------------------------------6---------------|
|-------------------------6---7-6-5----7--------------|
|------------------------7--5-8-7-8------9------------|
|-555-777-999------0----------------------------------|
|-333-555-121212--------------------------------------|
________________________________________
Riff Four (Play Medium Tempo)

|-----------------------------------------------------|
|----------------------------------8--8--8------------|
|-------------------------9---9---7--7--7-------------|
|----------------------8-------8---6--6---6-----------|
|--3--7--5--7--5--7-----------------------------------|
|-1-6--1--6--1--6-------------------------------------|
__________________________________________
That's all,  fun song to play one of the old school style songs from the black torment demo. 
Computer Tabbed by Lord  Death, Lorddeath666@xmail.net
Comments