Black Stone Cherry - Blind Man Intro Chords & Tabs

 

Blind Man Intro Chords & Tabs

Black Stone Cherry Chords & Tabs

Version: 1 Type: Tab 0 ratings
1 star 2 stars 3 stars 4 stars 5 stars
comments

Blind Man Intro Tab

                             this is a drop d song   (on 6th string)
e---0-------2-3--------0----------------
a-----2-3---------2-3-----2-3--------2-3
d------------------------------2-3------             reapeat 4 times
g---------------------------------------
b---------------------------------------
e---------------------------------------     


[ Tab from: http://www.guitartabs.cc/tabs/b/black_stone_cherry/blind_man_intro_tab.html ]
e-------0-0-0----0-0-0----0-0-0----0-0-0-----------3------5      
a---2-3-------2-3------2-3------2-3----------3-----3------5   reapeat 5 times
d--------------------------------------------4-----3------5
g--------------------------------------------4-------------
b----------------------------------------------------------
e----------------------------------------------------------



            
Comments