Black Sabbath - War Pigs Chords & Tabs

 

War Pigs Chords & Tabs

Black Sabbath Chords & Tabs

Version: 3 Type: Tab 0 ratings
1 star 2 stars 3 stars 4 stars 5 stars
comments

War Pigs Tab

   
-------------------------------------------------------------------------------
			     War Pigs - Black Sabbath
-------------------------------------------------------------------------------
[ Tab from: http://www.guitartabs.cc/tabs/b/black_sabbath/war_pigs_tab_ver_3.html ]
By:Jesse gardner
Intro
e|------|--------------------------|--------------------------|
B|------|--------------------------|--------------------------|
G|------|+------------------------+|--------------------------|
D|-9----|+-9--9-9\-7~~-7/9\7/9--9-+|-9--9\7-7-7/9--9-9\7-7----|
A|-7----|--7--7-7\-----5/7\5/7--7--|-7--7\5-5-5/7--7-7\5-5----|
E|------|--------------------0-----|--------------------------|
First Verse    Fills for Verse 1
e|-----|      ------------|-------|-12\---|
B|-----|      ------------|-------|-12\---|
G|-7/9-|      --15p12---12|-6tr7--|-12\---|
D|-7/9-|      --------15--|-------|-------|
A|-5/7-|      ------------|-------|-------|
E|-----|      ------------|-------|-------|
Bridge
e|-------------()------|--------|------|------|
B|-------------()------|-8^(10)-|------|-8tr9-|
G|-------------()------|--------|-6tr7-|------|
D|-12-11--10---()-7/9--|--------|------|------|
A|-10--9--8---7()-5/7--|--------|------|------|
E|-------------()------|--------|------|------|
Bridge 2
e|---------12\---------------|
B|---------12\---------------|
G|---------12\---------------|
D|---------------------------|
A|---------------------------|
E|--0-0-0-0------0-0-0-3^(4)-|
   ........      .....
Verse 2
e|-----------------------------|
B|-----------------------------|
G|-----------------------------|
D|----------2p0---------2p0----|
A|-----------------------------|
E|--0-0-0-0-----0-0-0-------3^-|
    .......     ..... 
Interlude   
e|----------------------------------------------------------------------
B|----------------------------------------------------------------------
G|----------------------------------------------------------------------
D|----------------------------------------------------------------------
A|-11h12---12p11---11\7---7\5---5h7-7-5h7-7/11/12-11h12---12p11---12h14-
E|-------0-------0------0-----0-------------------------0-------0-------

Solo-Stick to the E pentatonic(12th fret) and you should get it. Just a lot of slurs 
and bends. I know it but it would take to long to write out. Its pretty easy to figure 
out though.



Outro
e|----------------------|---------|---------|
B|----------------------|---------|---------|
G|--------7-------7-----|---------|---------|
D|----9-------9-------9-|-9-------|-9--11-9-|
A|--7---7---7---7---7---|-7--9-12-|-7--9--7-|
E|----------------------|----7-10-|---------|

Keep playing the above riff dropping it down two frets at a time until the end of the 
song, which has a really sucky ending, and I like to end on an E5.

Progression:
Intro Riff
Verse 1 Riff x7
Verse 1 Riff w/fills x4
Bridge x4
Bridge 2 x4
Verse 2 Riff x8
Bridge 2 x4
Verse 2 Riff x8
Verse 1 Riff x1
Bridge x4
Interlude
Main Solo
Interlude
Intro Riff(a lot faster)
Verse 1 riff x7
Verse 1 riff w/fills x4
Bridge x4
Outro w/endings x4
Outro x4
Outro on 5th Fret x2
Outro on 3rd Fret x2
Solo
Outro
Comments