Black Sabbath - War Pigs Chords & Tabs

 

War Pigs Chords & Tabs

Black Sabbath Chords & Tabs

Version: 2 Type: Tab 0 ratings
1 star 2 stars 3 stars 4 stars 5 stars
comments

War Pigs Tab

   
Black Sabbath,War Pigs.
Tabbed by FOX,the_fox56@hotmail.com.
  
repeat this a bunch of times(listen to the cd to check out how many times)
Main Riff:
|----------------------------------------------------
|----------------------------------------------------
|7-9-------------------------------------------------
|7-9-------------------------------------------------
|5-7-------------------------------------------------
|----------------------------------------------------

After having done this riff a couple of times(listen to the cd)play this one

Riff A:
|----------------------------------------------------
|------------------8---------------------------------
|12--11--10--9-----------7-9-------------------------
|12--11--10--9-----------7-9-------------------------
|10--9---8---7-----------5-7-------------------------
|----------------------------------------------------

Another part of the verse is this:

Riff 2:

|--------12------------------------------------------
|--------12------------------------------------------
|--------12------------------------------------------
|----------------------------------------------------
|----------------------------------------------------
|0-0-0-0-----0-0-0---3^^-----------------------------

repeat it a few times(cd)
[ Tab from: http://www.guitartabs.cc/tabs/b/black_sabbath/war_pigs_tab_ver_2.html ]
Interlude(before big solo)
|----------------------------------------------------
|----------------------------------------------------
|-----7----------repeat a lot(cd)--------------------
|--9-------------------------------------------------
|7---7-----------------------------------------------

|----------------------------------------------------
|----------------------------------------------------
|----------------------------------------------------
|4--5-5-4--------------------------------------------
|2--3-3-2--------------------------------------------
|----------------------------------------------------



Lyrics:

Generals gathered in their masses Just like witches at black masses
 Evil minds that plot destruction Sorcerers of death's construction
 In the fields are bodies burning   
 As the war machine keeps turning   
 Death and hatred to mankind        
 Poisoning their brainwashed minds, Oh Lord yeah 
 Politicians hide themselves away They only started the war
 Why should they go out to fight They leave that all to the poor  Time will tell on their power minds Making war just for fun
 Treating people just like pawns in chess Wait til the judgement day comes Now in darkness world stops turning As you hear the bodies burning
 No more warpigs have the power And as God has struck the hour
 Day of judgement, God is calling                   On their knees the warpigs crawling  
 Begging mercy for their sins         
 Satan laughing spreads his wings, Oh Lord yeah

 
:: Ultimate Guitar Archive :: 
http://www.ultimate-guitar.com
Comments