Black Sabbath - War Pigs Chords & Tabs

 

War Pigs Chords & Tabs

Black Sabbath Chords & Tabs

Version: 1 Type: Tab 5 ratings
1 star 2 stars 3 stars 4 stars 5 stars
comments

War Pigs Tab

Artist- Black Sabbath
Song- War Pigs
Transcribed by- Josh
Tuning- Standard


	Intro 
              ^^^^^^^^^^                ^^^^^^^  
|------------------------------------------------------|
|------------------------------------------------------|
|------------------------------------------------------|
|-----------------------6-6h7-6--- ------------6-6h7-6-|
|-7-7-5p7-7\5-5---5-----7-7---7-5h7-7p5-5------7-7---7-|
|-0-0-0---0-------------0-0---0-0---0----------0-0---0-|

[ Tab from: http://www.guitartabs.cc/tabs/b/black_sabbath/war_pigs_tab.html ]
	 intro to verse
|--------------------------------------------------12----|
|--------------------------------------------------12----|
|-----------------4p2p0-----------0h2p0h2p0--------12----|
|-7/9------7/9---------2p0-7/9--------------7/9-------7/9|
|-5/7------5/7-------------5/7--------------5/7-------5/7|
|--------------------------------------------------------|


	interlude
|-----------------------------------------------------|
|-----------------------------------------------------|
|--------------12^---------------------12h14p12h14p12-|   repeat a few times
|-----------------------------------------------------|
|--17-16-15-14-----12-14---17-16-15-14----------------|
|--15-14-13-12-----10-12---15-14-13-12----------------|



	Bridge
|-------------12---------------|
|-------------12---------------|
|-------------12---------------|    Repeat a few times
|------------------------------|
|------------------------------|
|-x0-x0-x0-x0----x0-x0-x0-3^^^-| 



	Bridge part 2
|-------------------------------|
|-------------------------------|
|-------------------------------|
|-------------2p0----------2p0--|
|-------------------------------|
|-x0-x0-x0-x0-----x0-x0-x0----3-|
Comments