Black Sabbath - The Wizard Chords & Tabs

 

The Wizard Chords & Tabs

Black Sabbath Chords & Tabs

Version: 2 Type: Bass Tab 0 ratings
1 star 2 stars 3 stars 4 stars 5 stars
comments

The Wizard Bass Tab

Song: The Wizard
Artist: Black Sabbath
Album: Black Sabbath
Bassist: Geezer Butler
Tabbed By: Matt Lamont

For this song, there is supposed to be a harmonica playing the very beginning 
of the song, but i tabbed it out on bass.

Intro   (00:01)
G||------------------------------|------------------------------|------------------------------|
D||------------------------------|------------------------------|------------------------------|
A||------------------------------|------------------------------|------------------------------|
E||--3/5~~~~---3/5---------------|--3/5~~~~---3/5---------------|--3/5~~~~~--------------------|


   (00:20)
G||------------------------------|------------------------------|------------------------------|------------------------------|
D||------------------------------|------------------------------|------------------------------|------------------------------|
A||------------------------------|----------5--7-7--5-----------|------------------------------|---------5--7-7--5------------|
E||--5---8---5-------------------|--5--8---------------8--5-----|--5---8---5-------------------|--5--8---------------8--5-----|



G||------------------------------|------------------------------|------------------------------|------------------------------|
D||------------------------------|------------------------------|------------------------------|------------------------------|
A||------------------------------|----------5--7-7--5-----------|------------------------------|---------5--7-7--5------------|
E||--5---8---5-------------------|--5--8---------------8--5-----|--5---8---5-------------------|--5--8---------------8--5-----|



Just Before Gutiar Solo 1   (00:39)
G||------------------------------|
D||------------------------------|
A||------------------------------|
E||--5~~~~~~~~~~~----------------|


After Solo   (00:54)
G||------------------------------|------------------------------|------------------------------|------------------------------|
D||------------------------------|------------------------------|------------------------------|------------------------------|
A||------------------------------|----------5--7-7--5-----------|------------------------------|---------5--7-7--5------------|
E||--5---8---5-------------------|--5--8---------------8--5-----|--5---8---5-------------------|--5--8---------------8--5-----|


   (01:04)
G||------------------------------|
D||------------------------------|
A||------------------------------|
E||--5~~~~-----------------------|


   (01:06)
G||------------------------------|------------------------------|
D||------------------------------|------------------------------|
A||------------------------------|------------------------------|
E||--5-5----5h6----5-5-----------|--5-5----5h6----5-5-----------|
                    ^        
               fast hammer
G||------------------------------|------------------------------|------------------------------|------------------------------|
D||------------------------------|------------------------------|------------------------------|------------------------------|
A||------------------------------|------------------------------|------------------------------|------------------------------|
E||--5-5----5h6----5-5-----------|--5-5----5h6----5-5-----------|--5-5----5h6----5-5-----------|--5-5----5h6----5-5-----------|


   (01:35)
G||------------------------------|------------------------------|------------------------------|------------------------------|
D||------------------------------|------------------------------|------------------------------|------------------------------|
A||------------------------------|------------------------------|------------------------------|------------------------------|
E||--8-7--5--5-------------------|--8-7--5--5-------------------|--8-7--5--5-------------------|--8-7--5--5-------------------|


   (01:45)
G||------------------------------|------------------------------|------------------------------|------------------------------|
D||------------------------------|------------------------------|------------------------------|------------------------------|
A||------------------------------|----------5--7-7--5-----------|------------------------------|---------5--7-7--5------------|
E||--5---8---5-------------------|--5--8---------------8--5-----|--5---8---5-------------------|--5--8---------------8--5-----|


G||------------------------------|------------------------------|------------------------------|------------------------------|
D||------------------------------|------------------------------|------------------------------|------------------------------|
A||------------------------------|----------5--7-7--5-----------|------------------------------|---------5--7-7--5------------|
E||--5---8---5-------------------|--5--8---------------8--5-----|--5---8---5-------------------|--5--8---------------8--5-----|

[ Tab from: http://www.guitartabs.cc/tabs/b/black_sabbath/the_wizard_btab_ver_2.html ]
   (02:04)
G||------------------------------|
D||------------------------------|
A||------------------------------|
E||--5~~~~-----------------------|


   (02:07)
G||------------------------------|------------------------------|
D||------------------------------|------------------------------|
A||------------------------------|------------------------------|
E||--5-5----5h6----5-5-----------|--5-5----5h6----5-5-----------|
                    ^ 
              fast hammer
G||------------------------------|------------------------------|------------------------------|------------------------------|
D||------------------------------|------------------------------|------------------------------|------------------------------|
A||------------------------------|------------------------------|------------------------------|------------------------------|
E||--5-5----5h6----5-5-----------|--5-5----5h6----5-5-----------|--5-5----5h6----5-5-----------|--5-5----5h6----5-5-----------|


   (02:35)
G||------------------------------|------------------------------|------------------------------|------------------------------|
D||------------------------------|------------------------------|------------------------------|------------------------------|
A||------------------------------|------------------------------|------------------------------|------------------------------|
E||--8-7--5--5-------------------|--8-7--5--5-------------------|--8-7--5--5-------------------|--8-7--5--5-------------------|


   (02:45)
G||------------------------------|------------------------------|------------------------------|------------------------------|
D||------------------------------|------------------------------|------------------------------|------------------------------|
A||------------------------------|------------------------------|------------------------------|------------------------------|
E||--5-5----5h6----5-5-----------|--5-5----5h6----5-5-----------|--5-5----5h6----5-5-----------|--5-5----5h6----5-5-----------|


G||------------------------------|------------------------------|------------------------------|------------------------------|
D||------------------------------|------------------------------|------------------------------|------------------------------|
A||------------------------------|------------------------------|------------------------------|------------------------------|
E||--5-5----5h6----5-5-----------|--5-5----5h6----5-5-----------|--5-5----5h6----5-5-----------|--5-5----5h6----5-5-----------|


G||------------------------------|------------------------------|------------------------------|------------------------------|
D||------------------------------|------------------------------|------------------------------|------------------------------|
A||------------------------------|------------------------------|------------------------------|------------------------------|
E||--5-5----5h6----5-5-----------|--5-5----5h6----5-5-----------|--5-5----5h6----5-5-----------|--5-5----5h6----5-5-----------|


   (03:43)
G||------------------------------|------------------------------|------------------------------|------------------------------|
D||------------------------------|------------------------------|------------------------------|------------------------------|
A||------------------------------|------------------------------|------------------------------|------------------------------|
E||--8-7--5--5-------------------|--8-7--5--5-------------------|--8-7--5--5-------------------|--8-7--5--5-------------------|


   (03:53)
G||------------------------------|------------------------------|------------------------------|------------------------------|
D||------------------------------|------------------------------|------------------------------|------------------------------|
A||------------------------------|----------5--7-7--5-----------|------------------------------|---------5--7-7--5------------|
E||--5---8---5-------------------|--5--8----------------8--5----|--5---8---5-------------------|--5--8---------------8--5-----|


G||------------------------------|------------------------------|------------------------------|------------------------------|
D||------------------------------|------------------------------|------------------------------|------------------------------|
A||------------------------------|----------5--7-7--5-----------|------------------------------|----------5--7-7--5-----------|
E||--5---8---5-------------------|--5--8----------------8--5----|--5---8---5-------------------|--5--8----------------8--5----|



G||------------------------------|------------------------------|------------------------------|
D||------------------------------|------------------------------|------------------------------|
A||----------5--7-7--5-----------|----------5--7-7--5-----------|------------------------------|
E||--5--8----------------8--5----|--5--8----------------8--5----|---5--------------------------|


ENJOY!

   Matt Lamont
Comments