Black Sabbath - Sweet Leaf Chords & Tabs

 

Sweet Leaf Chords & Tabs

Black Sabbath Chords & Tabs

Version: 13 Type: Tab 0 ratings
1 star 2 stars 3 stars 4 stars 5 stars
comments

Sweet Leaf Tab

   
Tuning: 1 1/2 steps down

----------------------------------------------|
----------------------------------------------|see bottom
---------------7/6/5-------5/7----------------|
----7---7------7/6/5-------5/7----------------|
----7---7------5/4/3-------3/5----------------|
----5---5-------------------------------------|

----------------------------------------------|
----------------------------------------------|
---------------7/6/5-------5/7----------------|
----7---7------7/6/5-------5/7----------------|
----7---7------5/4/3-------3/5----------------|
----5---5-------------------------------------|

----------------------------------------------|
----------------------------------------------|
---------------7/6/5-------5/7----------------|
----7---7------7/6/5-------5/7----------------|
----7---7------5/4/3-------3/5----------------|
----5---5-------------------------------------|

----------------------------------------------|
----------------------------------------------|
---------------7/6/5-------5/7----------------|
----7---7------7/6/5-------5/7----------------|
----7---7------5/4/3-------3/5----------------|
----5---5-------------------------------------|

----------------------------------------------|
----------------------------------------------|
----------------------------------------------|
----7-------5----10----14-----7---------------|
----7-------5----10----14-----7---------------|
----5-------3-----8----10-----5---------------|

----------------------------------------------|
----------------------------------------------|
----------------------------------------------|
----7-------5----10----14-----7---------------|
----7-------5----10----14-----7---------------|
----5-------3-----8----10-----5---------------|

----------------------------------------------|
----------------------------------------------|
----------------------------------------------|
----7-------5----10----14-----7---------------|
----7-------5----10----14-----7---------------|
----5-------3-----8----10-----5---------------|

----------------------------------------------|
----------------------------------------------|
---------------7/6/5-------5/7----------------|
----7---7------7/6/5-------5/7----------------|
----7---7------5/4/3-------3/5----------------|
----5---5-------------------------------------|

----------------------------------------------|
----------------------------------------------|
---------------7/6/5-------5/7----------------|
----7---7------7/6/5-------5/7----------------|
----7---7------5/4/3-------3/5----------------|
----5---5-------------------------------------|

----------------------------------------------|
----------------------------------------------|
---------------7/6/5-------5/7----------------|
----7---7------7/6/5-------5/7----------------|
----7---7------5/4/3-------3/5----------------|
----5---5-------------------------------------|

----------------------------------------------|
----------------------------------------------|
---------------7/6/5-------5/7----------------|
----7---7------7/6/5-------5/7----------------|
----7---7------5/4/3-------3/5----------------|
----5---5-------------------------------------|

----------------------------------------------|
----------------------------------------------|
----------------------------------------------|
----7-------5----10----14-----7---------------|
----7-------5----10----14-----7---------------|
----5-------3-----8----10-----5---------------|

----------------------------------------------|
----------------------------------------------|
----------------------------------------------|
----7-------5----10----14-----7---------------|
----7-------5----10----14-----7---------------|
----5-------3-----8----10-----5---------------|

----------------------------------------------|
----------------------------------------------|
----------------------------------------------|
----7-------5----10----14-----7---------------|
----7-------5----10----14-----7---------------|
----5-------3-----8----10-----5---------------|

----------------------------------------------|
----------------------------------------------|
----------------------------------------------|
----7-------5----10----14-----7---------------|
----7-------5----10----14-----7---------------|
----5-------3-----8----10-----5---------------|

----------------------------------------------|
----------------------------------------------|
---7------7--7--7--7--7/9---------------------|
---7------7--7--7--7--7/9---------------------|
---5------5--5--5--5--5/7---------------------|
----------------------------------------------|

----------------------------------------------|
----------------------------------------------|
---7------7--7--7--7--7/9---------------------|
---7------7--7--7--7--7/9---------------------|
---5------5--5--5--5--5/7---------------------|
----------------------------------------------|
[ Tab from: http://www.guitartabs.cc/tabs/b/black_sabbath/sweet_leaf_tab_ver_13.html ]
----------------------------------------------|
----------------------------------------------|
---7------7--7--7--7--7/9---------------------|
---7------7--7--7--7--7/9---------------------|
---5------5--5--5--5--5/7---------------------|
----------------------------------------------|

----------------------------------------------|
----------------------------------------------|
---7------7--7--7--7--7/9---------------------|
---7------7--7--7--7--7/9---------------------|
---5------5--5--5--5--5/7---------------------|
----------------------------------------------|

----------------------------------------------|
-----6-7-6h7p6---6-7-6h7p6---6-7-6h7p6----9---|repeat over and over again
---------------6-----------6------------6-----|
----------------------------------------------|
----------------------------------------------|
----------------------------------------------|

----------------------------------------------|
---15~--15b-15p12-----------------------------|
------------------14p12-----------------------|
------------------------14~-------------------|
----------------------------------------------|
----------------------------------------------|

----------------------------------------------|
---15~--15b-15p12-----------------------------|
------------------14p12-----------------------|
------------------------14p12-----------------|
------------------------------14p12-----------|
------------------------------------15p12-----|

----------------------------------------------|
---15~--15b-15p12-----------------------------|
------------------14p12-----------------------|
------------------------14~-------------------|
----------------------------------------------|
----------------------------------------------|

----------------------------------------------|
---15~--15b-15p12-----------------------------|
------------------14p12-----------------------|
------------------------14p12-----------------|
------------------------------14p12-----------|
------------------------------------15p12-----|

----------------------------------------------|
----------------------------------------------|
-----6----------------------------------------|
-----6----7/6/5-------------------------------|
-----4----7/6/5-------------------------------|
----------5/4/3-------------------------------|

----------------------------------------------|
----------------------------------------------|
-----6----------------------------------------|
-----6----7/6/5-------------------------------|
-----4----7/6/5-------------------------------|
----------5/4/3-------------------------------|

----------------------------------------------|
----------------------------------------------|
-----6----------------------------------------|
-----6----7/6/5-------------------------------|
-----4----7/6/5-------------------------------|
----------5/4/3-------------------------------|

----------------------------------------------|
----------------------------------------------|
-----6----------------------------------------|
-----6----7/6/5-------------------------------|
-----4----7/6/5-------------------------------|
----------5/4/3-------------------------------|

----------------------------------------------|
----------------------------------------------|
---------------7/6/5-------5/7----------------|
----7---7------7/6/5-------5/7----------------|
----7---7------5/4/3-------3/5----------------|
----5---5-------------------------------------|

----------------------------------------------|
----------------------------------------------|
---------------7/6/5-------5/7----------------|
----7---7------7/6/5-------5/7----------------|
----7---7------5/4/3-------3/5----------------|
----5---5-------------------------------------|

----------------------------------------------|
----------------------------------------------|
---------------7/6/5-------5/7----------------|
----7---7------7/6/5-------5/7----------------|
----7---7------5/4/3-------3/5----------------|
----5---5-------------------------------------|

----------------------------------------------|
----------------------------------------------|
---------------7/6/5-------5/7----------------|
----7---7------7/6/5-------5/7----------------|
----7---7------5/4/3-------3/5----------------|
----5---5-------------------------------------|

Notation used:
/-slide to
b-bend
p-pull off
h-hammer on
~-vibrato

Recommendation!

For the first riff (on the 2nd time!) play this
play as many times as needed
----------------------------------------------|
----------------------------------------------|
---------------7-6-5------5-7-----------------|
----7--7--------------------------------------|
----------------------------------------------|
----------------------------------------------|

----------------------------------------------|
------------------------7---------------------|
----------------5-----------------------------|
-----7-----5----------------7-----------------|
----------------------------------------------|
----------------------------------------------|
Comments