Black Sabbath - Sweet Leaf Chords & Tabs

 

Sweet Leaf Chords & Tabs

Black Sabbath Chords & Tabs

Version: 1 Type: Tab 1 rating
1 star 2 stars 3 stars 4 stars 5 stars
comments

Sweet Leaf Tab

Sweet Leaf
*************
Black Sabbath  (Masters of Reality)

--TABed and transcribed by Gustav Cederlof--


Riff 1
e||---------------------||
B||---------------------||
G||---------------------||
D||--------7\6\5---5----||
A||---7-7--5\4\3-0-3----||
E||---5-5---------------||


Riff 2
e||-------------------------||
B||-------------------------||
G||-------------------------||
D||-------------------------||
A||---7---(7)\5--10-14\7----||
E||---5---(5)\3--8--12\5----||


Riff 3
e||--------------------------------------------------------------------------||
B||--------------------------------------------------------------------------||
G||--------------------------------------------------------------------------||
D||--------------------------------------------------------------------------||
A||---7--7--7--7--9-9-9-9-9-9-9-9-11-9-9-9-9-9-9-9-9-11-9-9-9-9-9-9-9-9-11---||
E||---5--5--5--5--7-7-7-7-7-7-7-7-9--7-7-7-7-7-7-7-7-9--7-7-7-7-7-7-7-7-9----||

[ Tab from: http://www.guitartabs.cc/tabs/b/black_sabbath/sweet_leaf_tab.html ]
Riff 4
e||------9----------------||
B||---12---12h9---[14]----||
G||---------------last----||
D||---------------time----||
A||---------------only----||
E||-----------------------||


Riff 5
e||---------------||
B||---------------||
G||---------------||
D||---6-----------||
A||---4--7\6\5----||
E||------5\4\3----||



Intro - Riff 1  x2

Riff 1
Alright now
Won't you listen

When I first met you, Didn't realise
I can't forget you, Or your surprise
You introduced me, To my mind
And left me wanting, You and your prise
Oh Yeah

Riff 2  x4

Riff 1
I love you
Oh you know it

My life was empty, Forever on a down
Until you took me, Shoved me around
My life is free now, My life is clear
I love you Sweet Leaf, Though you can't hear
Oh Yeah

Riff 2  x4

Riff 3

Riff 4  x 17

Solo
It's just to get mad and hurt your guitar as much as possible
in an Emajor blusescale really..

Riff 5  x2

Riff 1
Come on now
Cry out

Great people don't know, What you're about
They'll put you down, And shut you out
You gave to me, A new belief
And soon the world, Will love you Sweet Leaf
Oh Yeah baby

Riff 2  x2

Riff 1
Come on now
Wow Yeah

Try me out baby, alright, Wow yeah
Oh won't you try to do Sweet Leaf, oh yeah,
Alright yeah, yeah, yeah, Try me out
I love you Sweet Leaf, Yeah
Comments