Black Sabbath - Sweet Leaf Chords & Tabs

 

Sweet Leaf Chords & Tabs

Black Sabbath Chords & Tabs

Version: 1 Type: Bass Tab 0 ratings
1 star 2 stars 3 stars 4 stars 5 stars
comments

Sweet Leaf Bass Tab

Song: Sweet Leaf
Artist: Black Sabbath
Tabber:Ken La Rock (Whitepny33@aol.com)
Tuning:Standard

The other bass tabs for this song were pretty close and sound fine, but
i think this plays better and is closer to the song on the album

Main Riff
--------------------------------
--------------------------------
--------8--7--6----6--6--8-----
--8--8--------------------------

Chorus
--------------------------------
--------------------------------
--------------------------------
--8----6----11----15/8~---------
[ Tab from: http://www.guitartabs.cc/tabs/b/black_sabbath/sweet_leaf_btab.html ]
That is it really just repeat and do the main riff through the solo.

If your a fan of Six Feet Under and want the heavier way to play this
song then go farther up the neck and play it like:

--------------------------------
--------------------------------
--------5--4--3-----3--3--5-----
--5--5--------------------------

--------------------------------
--------------------------------
--------------------------------
--5----3----8----12/5-----------

sound pretty good and is deeper, and comment tell me i always want 
to get better at my tabbing.
Comments