Black Sabbath - Supernaut Chords & Tabs

 

Supernaut Chords & Tabs

Black Sabbath Chords & Tabs

Version: 5 Type: Tab 0 ratings
1 star 2 stars 3 stars 4 stars 5 stars
comments

Supernaut Tab

   
Black Sabbath-Supernaut
Tuned down one and one half steps
tuning:C# F# B E G# C#

Intro:
-----------------------------------------------------|
-----------------------------------------------------|
-----------------------------------------------------|
-----------------------------------------------------|
--5h7--7--7p5--0--5--7--7h(7)--5h7--7--7p5--0--5---0-|
-----------------------------------------------------|

-----------------------------------------------------|
-----------------------------------------------------|
-----------------------------------------------------|
-----------------------5h7h(7)-7p5-0--5h7---7-7p5-0--|
--5h7--7--7p5--0--5--7-------------------------------|
-----------------------------------------------------|
[ Tab from: http://www.guitartabs.cc/tabs/b/black_sabbath/supernaut_tab_ver_5.html ]
-----------------------------------------------------|
-----------------------------------------------------|
-----------------------------------------------------|
--4h6--6--6p4--------4h6--6--4h6--6--6p4------4------|
-----------------6-------------------------6---------|
-----------------------------------------------------|

-----------------------------------------------------|
-----------------------------------------------------|
---------------------------4h6h(6)--6p4-----4--------|
--4h6--6--6p4-------4---6-----------------6----6--4--|
----------------6------------------------------------|
-----------------------------------------------------|

-----------------------------------------------------|
-----------------------------------------------------|
--7/-------------------7------------------7.---------|
--6/-------------------7-------------5----7.---------|
--7/-------------------5-------------5----5.---------|
-------/-9-0-/-10-0-0--------------------------------|

verse:
--7---------------------------------------------7----|
--x---------------------------------------------x----|
--7------------------7-----------7--------------7----|
--6------------------7-------5---7--------------x----|
--7------------------5-------5---5-----7p5--7---7----|
------8-0---10-0-0-----------------------------------|
Comments