Black Sabbath - Spiral Architect Chords & Tabs

 

Spiral Architect Chords & Tabs

Black Sabbath Chords & Tabs

Version: 2 Type: Tab 0 ratings
1 star 2 stars 3 stars 4 stars 5 stars
comments

Spiral Architect Tab

================================================================================
         Title : Spiral Architect
        Artist : Black Sabbath
         Album : Sabbath Bloody Sabbath
================================================================================


 NOTE TUNING

  intro                    x4                          x4

C#||------------0---------||--||------------0---------||
G#||*--------6-----6-----*||--||*--------8-----8-----*||
E ||------7-----------7---||--||------9-----------9---||
B ||---0------------------||--||---0------------------||
F#||*--------------------*||--||*--------------------*||
C#||----------------------||--||----------------------||



                            x4
[ Tab from: http://www.guitartabs.cc/tabs/b/black_sabbath/spiral_architect_tab_ver_2.html ]
C#||--------------8---------||
G#|*-----------6-----6-----*||
E ||------7-------------7---||
B ||---0--------------------||
F#|*-----------------------*||
C#||------------------------||





C#|--------------------------------------------------------------------------|
G#|----------0-----------------0-----------------0-------------------0-------|
E |-------6-----6-----------4-----4-----------6-------6-----------4-----4----|
B |----7-----------7-----5-----------5-----7-------------7-----5-----------5-|
F#|-0-----------------0-----------------0-------------------0----------------|
C#|--------------------------------------------------------------------------|




                          x4

C#||------------8---------||
G#||*--------6-----6-----*||
E ||------7-----------7---||
B ||---0------------------||
F#||*--------------------*||
C#||----------------------||
Comments