Black Sabbath - Solitude Chords & Tabs

 

Solitude Chords & Tabs

Black Sabbath Chords & Tabs

Version: 2 Type: Tab 0 ratings
1 star 2 stars 3 stars 4 stars 5 stars
comments

Solitude Tab

Band: Black Sabbath
Album: Master Of Reality
Song: Solitude
Tabbed By: LedZep420 (dm_420@hotmail.com)

Main Riff:

E----------------------------|-5H6P5---5-5--5H6P5---5-5--|
B-----3-1---------------3-1--|-------6------------6------|
G-0--3-----2H3P2----0--3----o|--------------------------o|
D----------------3----------o|--------------------------o|
A----------------------------|---------------------------|
E----------------------------|---------------------------|

Verse Riff:

E-------------------------------------|
B-------------------------------------|
G----3----2----3----2----3----2----2-o|
D----5----3----5----3----5----3----3-o|
A----5----3----5----3----5----3----3--|
E-3--3-1--1-3--3-1--1-3--3-1--1-1--1--|

Solo:
[ Tab from: http://www.guitartabs.cc/tabs/b/black_sabbath/solitude_tab_ver_2.html ]
E---------------------------|---------------------------|
B---------------------------|---------------------------|
G-0--2H3P2-0----------5---0-|-0--2H3P2-0----------5---0-|
D------------3--0-2-3---3---|------------3--0-2-3---3---|
A--------------3------------|--------------3------------|
E---------------------------|---------------------------|

E-----------------------------|----------------------------|
B-----------------------------|----------------------------|
G-2H3-2-0-2H3-2-0-----0-3P2-0-|-0--2H3P2-0----------5---0--|
D-----------------3-3---------|------------3--0-2-3---3----|
A-----------------------------|--------------3-------------|
E-----------------------------|----------------------------|

Outro:

E----------------------|
B----------------------|
G----3----2----3----2-o|
D----5----3----5----3-o|
A----5----3----5----3--|
E-3--3-1--1-3--3-1--1--|
Comments