Black Sabbath - Snowblind Chords & Tabs

 

Snowblind Chords & Tabs

Black Sabbath Chords & Tabs

Version: 1 Type: Bass Tab 0 ratings
1 star 2 stars 3 stars 4 stars 5 stars
comments

Snowblind Bass Tab

Snowblind - Black Sabbath

r=rest

  intro/bridge (x2)              verse (x6)           chorus (x2)
G|------------------------------|-------------------|----------------|
D|-------------------7-------9--|------------------2|----------7---9-|
A|4-6-7-----4-------7-7-----9-9-|4--4r-24---2-2-2h4-|4--------7-7-9-9|
E|-------7-----55555---77777----|----------2--------|--752-425---7---|
[ Tab from: http://www.guitartabs.cc/tabs/b/black_sabbath/snowblind_btab.html ]
  solo riff                          solo riff variation
G|----------------------------------|------------------------------------|
D|-------------------------------64-|-----------------------6----4h64-64-|
A|4-444-4---------------442--------6|4-44-44---------------4-6-------6--6|
E|--------7-776-665-55-----4--424---|--------7-776-665-55-----4----------|

  interlude (x6 after guitar does does it twice)
G|----------------------|
D|---2-2---2-2---22-----|
A|4-4-4-4-4-4-4-4--22-2-|
E|----------------------|

song order:
intro
verse
chorus
verse
chorus
bridge
solo
verse
chorus
interlude
chorus
verse (2nd solo) until fade out on studio album, but continues on live performance as...
chorus
verse
chorus riff x3
ends on a c# note

tabbed by Achilles (blue_sincere@hotmail.com)

Comments