Black Sabbath - Sabbath Bloody Sabbath Chords & Tabs

 

Sabbath Bloody Sabbath Chords & Tabs

Black Sabbath Chords & Tabs

Version: 5 Type: Tab 0 ratings
1 star 2 stars 3 stars 4 stars 5 stars
comments

Sabbath Bloody Sabbath Tab

   
                             SABBATH BLOODY SABBATH
                          As recorded by Black Sabbath
                  (From the 1974 Album SABBATH BLOODY SABBATH)

Words and Music by Frank Iommi, John Osbourne, William Ward, Terence Butler
Transcribed by www.mikesguitarsite.co.uk

         Em/C                 D5/A                  G5                    G
    x x 10 12 12 12       x x x x 10 10       x x x 12 15 15       x 10 12 12 12 x

   Intro
    Q=66
   4/4
    Gtrs II, III
        PM|   PM|     PM|   PM|                         PM|
||------------------------------|----------------------------||
||o-----------------------------|---------------------------o||
||------------------------------|----------------------------||
||--0h9-9-9-9-----0h9-9-9-9-----|-5-7-(7)-9-(9)-12\-9-9-9-9--||
||o-0-7-7-7-7-7-7-0-7-7-7-7-0-0-|-3-5-(5)-7-(7)-10\-7-7-7-7-o||
||------------------------------|----------------------------||


   Verse1
        PM|   PM|     PM|   PM|                         PM|
                                                              4x
||------------------------------|-----------------------------||
||o-----------------------------|----------------------------o||
||------------------------------|-----------------------------||
||--0h9-9-9-9-----0h9-9-9-9-----|-5-7-(7)-9-(9)-12\-9-9-9-9---||
||o-0-7-7-7-7-7-7-0-7-7-7-7-0-0-|-3-5-(5)-7-(7)-10\-7-7-7-7--o||
||------------------------------|-----------------------------||


 Chorus 1
 4/4
  Gtr V
|--12-12-10--15--12--12-12---12-|-------------------------------------------------|
|--12-12-10--15--12--12-12---12-|-12---12-(12)-12-(12)-12---12-12--------------12-|
|--12-12-----12--12--12-12---12-|-12---12-(12)-12-(12)-12---12-12--------------12-|
|--10-10---------10--10-10---10-|-12---12-(12)-12-(12)-12---12-12--------------12-|
|-------------------------------|-10---10-(10)-10-(10)-10---10-10--------------10-|
|-------------------------------|-------------------------------------------------|
|
| Gtr VI
|-------------------------------|--7----------------------------------------10----|
|-------------------------------|----8h10-(10)--8--(8)-------8-10b12==(10)r----10-|
|-------------------------------|-----------------------7-9-----------------------|
|-------------------------------|-------------------------------------------------|
|-------------------------------|-------------------------------------------------|
|-------------------------------|-------------------------------------------------|
|
| Gtr I
|------------10---8--10----8----|-------------------------------------------------|
|-------------------------------|--8----------------------------------------------|
|-------------7---5---7----5----|--7-----------------------------------------7----|
|-------------------------------|--9-5h=7--(7)--5--(5)-------5--7s======9-------9-|
|-------------------------------|-----------------------5h7-----------------------|
|-------------------------------|-------------------------------------------------|


|--12--12-12--12-12-(12)-12-12-12-12--|
|--12--12-12--12-12-(12)-12-12-12-12--|
|--12--12-12--12-12-(12)-12-12-12-12--|
|--10--10-10--10-10-(10)-10-10-10-10--|
|-------------------------------------|
|-------------------------------------|
|
|-------------------------------------|
|-(10)--------------------------------|
|-------------------------------------|
|-------------------------------------|
|-------------------------------------|
|-------------------------------------|
|
|-------------------------------------|
|-------------------------------------|
|-------------------------------------|
|---7---------------------------------|
|-------------------------------------|
|-------------------------------------|


|------------------------------------------------|
|-12-12--12-12---(12)-12---12-(12)---------12----|
|-11-11--11-11---(11)-11---11-(11)---------11----|
|-12-12--12-12---(12)-12---12-(12)---------12----|
|-10-10--10-10---(10)-10---10-(10)---------10----|
|------------------------------------------------|
|
|-----------------17--15---12--------10----------|
|---------------------------------------12s10----|
|---------------------------------------------12-|
|------------------------------------------------|
|------------------------------------------------|
|------------------------------------------------|
|
|------------------------------------------------|
|------------------------------------------------|
|-------------------------------7--------------7-|
|----------------------5-7s=9------7s=9----------|
|--------------5h==7-----------------------------|
|------------------------------------------------|


|---12-12--12-12-(12)-12-12-12-12-|------------------------------------------|
|---12-12--12-12-(12)-12-12-12-12-|-12-12--12-12-(12)-12---12-12-------12----|
|---12-12--12-12-(12)-12-12-12-12-|-11-11--11-11-(11)-11---11-11-------11----|
|---10-10--10-10-(10)-10-10-10-10-|-12-12--12-12-(12)-12---12-12-------12----|
|---------------------------------|-10-10--10-10-(10)-10---10-10-------10----|
|---------------------------------|------------------------------------------|
|
|---------------------------------|-------------------12------10-------------|
|-8h10----------------------------|------------------------12----12p10-------|
|---------------------------------|---------------------------------------9--|
|---------------------------------|------------------------------------------|
|---------------------------------|------------------------------------------|
|---------------------------------|------------------------------------------|
|
|---------------------------------|------------------------------------------|
|---------------------------------|------------------------------------------|
|---------------------------------|----------------------------7--7h=9----9--|
|----7----------------------------|--------------------5-7h=9----------------|
|---------------------------------|------------------------------------------|
|---------------------------------|------------------------------------------|


|---5-5-5-----5-5-(5)-5-5-5-5-|-2-0-(0)-2-(2)-0-2-2-||
|---5-5-5-----5-5-(5)-5-5-5-5-|-3-2-(2)-3-(3)-2-3-3-||
|---5-5-5-----5-5-(5)-5-5-5-5-|-2-2-(2)-2-(2)-2-2-2-||
|---7-7-7-----7-7-(7)-7-7-7-7-|-0-0-(0)-0-(0)-0-0-0-||
|---7-7-7-----7-7-(7)-7-7-7-7-|---------------------||
|---5-5-5-----5-5-(5)-5-5-5-5-|---------------------||
|
|                             Gtr I
|-----------------------------|-2-0-(0)-2-(2)-0-2-2-||
|-----------------------------|-3-2-(2)-3-(3)-2-3-3-||
|-----------------------------|-2-2-(2)-2-(2)-2-2-2-||
|-7h9---7-(7)---5-(5)---------|-0-0-(0)-0-(0)-0-0-0-||
|-----------------------------|---------------------||
|-----------------------------|---------------------||


  Gtr II
          ~             ~                               ~~~~
|-----------------------------|-----------------------------|
|-----------------------------|-----------------------------|
|-7h9-9-9-9---9-7h9-9-9-9---7-|-5-7-(7)-7-9-(9)s12--9-9-9-9-|
|-----------------------------|-----------------------------|
|-----------------------------|-----------------------------|
|-----------------------------|-----------------------------|
|
| Gtr III
|     PM|   PM|     PM|   PM|                           PM|
|-----------------------------|-----------------------------|
|-----------------------------|-----------------------------|
|-----------------------------|-----------------------------|
|-0h9-9-9-9-----0h9-9-9-9-----|-5-7-(7)---9-(9)-12\-9-9-9-9-|
|-0-7-7-7-7-7-7-0-7-7-7-7-0-0-|-3-5-(5)---7-(7)-10\-7-7-7-7-|
|-----------------------------|-----------------------------|


          ~             ~                           ~~~~~~
|-----------------------------|-----------------------------|
|-----------------------------|-----------------------------|
|-7h9-9-9-9-----7h9-9-9-9-9-9-|-5-7-(7)-9-(9)s12--9-9-9-9---|
|-----------------------------|-----------------------------|
|-----------------------------|-----------------------------|
|-----------------------------|-----------------------------|
|
|     PM|   PM|     PM|   PM|                           PM|
|-----------------------------|-----------------------------|
|-----------------------------|-----------------------------|
|-----------------------------|-----------------------------|
|-0h9-9-9-9-----0h9-9-9-9-----|-5-7-(7)-9-(9)-12\-9-9---9-9-|
|-0-7-7-7-7-7-7-0-7-7-7-7-0-0-|-3-5-(5)-7-(7)-10\-7-7---7-7-|
|-----------------------------|-----------------------------|


   Verse 2
            ~             ~                               ~~~~
                                                               4x
||------------------------------|------------------------------||
||o-----------------------------|-----------------------------o||
||--7h9-9-9-9---9-7h9-9-9-9---7-|-5-7-(7)-7-9-(9)s12--9-9-9-9--||
||------------------------------|------------------------------||
||o-----------------------------|-----------------------------o||
||------------------------------|------------------------------||
|
|       PM|   PM|     PM|   PM|                           PM|
|                                                              4x
||------------------------------|------------------------------||
||o-----------------------------|-----------------------------o||
||------------------------------|------------------------------||
||--0h9-9-9-9-----0h9-9-9-9-----|-5-7-(7)---9-(9)-12\-9-9-9-9--||
||o-0-7-7-7-7-7-7-0-7-7-7-7-0-0-|-3-5-(5)---7-(7)-10\-7-7-7-7-o||
||------------------------------|------------------------------||


 Chorus 2
  Gtr IV
|--12----12-10--15--12--12-12----12-|
|--12----12-10--15--12--12-12----12-|
|--12----12-----12--12--12-12----12-|
|--10----10---------10--10-10----10-|
|-----------------------------------|
|-----------------------------------|
|
| Gtrs V, VI
|-----10-----8--10---8---7----------|
|-----------------------------10----|
|------7-----5---7---5---4----------|
|------------------------------7----|
|-----------------------------------|
|-----------------------------------|


|----------------------------------------|-12-12-12--12-12-(12)-12-12-12-12-|
|-12-12-(12)-12-(12)-12---12-12-------12-|-12-12-12--12-12-(12)-12-12-12-12-|
|-12-12-(12)-12-(12)-12---12-12-------12-|-12-12-12--12-12-(12)-12-12-12-12-|
|-12-12-(12)-12-(12)-12---12-12-------12-|-10-10-10--10-10-(10)-10-10-10-10-|
|-10-10-(10)-10-(10)-10---10-10-------10-|----------------------------------|
|----------------------------------------|----------------------------------|
|
|----------------------------------10----|----------------------------------|
|--8-----------------------8-10s12----12s|=10-------------------------------|
|---------------------7h9-----------7----|----------------------------------|
|--5-----------------------5--7s=9-----9s|==7-------------------------------|
|---------------------5h7----------------|----------------------------------|
|----------------------------------------|----------------------------------|


|------------------------------------------------|
|-12-12---12----12------(12)-12--12-(12)----12---|
|-11-11---11----11------(11)-11--11-(11)----11---|
|-12-12---12----12------(12)-12--12-(12)----12---|
|-10-10---10----10------(10)-10--10-(10)----10---|
|------------------------------------------------|
|
|--------------------10-------8---7--------------|
|----------8-10s12-----------------------10----8-|
|-----7h9----------7s=9-------7------------------|
|----------5--7s=9----------------9-------7----5-|
|-----5s7----------------------------------------|
|------------------------------------------------|


|---12-12--12-12-(12)-12-12-12-12-|----------------------------------------------|
|---12-12--12-12-(12)-12-12-12-12-|-12-12--12-12-(12)-12-------12---12---12------|
|---12-12--12-12-(12)-12-12-12-12-|-11-11--11-11-(11)-11-------11---11---11------|
|---10-10--10-10-(10)-10-10-10-10-|-12-12--12-12-(12)-12-------12---12---12------|
|---------------------------------|-10-10--10-10-(10)-10-------10---10---10------|
|---------------------------------|----------------------------------------------|
|
|                                 Gtr I
|---------------------------------|----------------------------------------------|
|-8s10----------------------------|----------------------------------------------|
|---------------------------------|--------------------------7----7h=9-7---------|
|-5s=7----------------------------|----------------------7s9----------------7h9--|
|---------------------------------|----------------------------------------------|
|---------------------------------|----------------------------------------------|


|-5-5-5--5-5------(5)--5-5-5-5-|-2-0-(0)-2-(2)-0-2-2-|-2-0-(0)-2-(2)-0-2-0-||
|-5-5-5--5-5------(5)--5-5-5-5-|-3-2-(2)-3-(3)-2-3-3-|-3-2-(2)-3-(3)-2-3-2-||
|-5-5-5--5-5------(5)--5-5-5-5-|-2-2-(2)-2-(2)-2-2-2-|-2-2-(2)-2-(2)-2-2-2-||
|-7-7-7--7-7------(7)--7-7-7-7-|-0-0-(0)-0-(0)-0-0-0-|-0-0-(0)-0-(0)-0-0-0-||
|-7-7-7--7-7------(7)--7-7-7-7-|---------------------|---------------------||
|-5-5-5--5-5------(5)--5-5-5-5-|---------------------|---------------------||
|
|                              Gtrs I, III
|------------------------------|-2-0-(0)-2-(2)-0-2-0-|-2-0-(0)-2-(2)-0-2-0-||
|------------------------------|-3-2-(2)-3-(3)-2-3-2-|-3-2-(2)-3-(3)-2-3-2-||
|------------------------------|-2-2-(2)-2-(2)-2-2-2-|-2-2-(2)-2-(2)-2-2-2-||
|-7----------<7>-(<7>)---------|-0-0-(0)-0-(0)-0-0-0-|-0-0-(0)-0-(0)-0-0-0-||
|------------------------------|---------------------|---------------------||
|------------------------------|---------------------|---------------------||


   Guitar Solo
    Gtr II
                                                   ~~                              ~~~
||-------------------------------------------------------|-----------------------------------------||
||o------------------------------------------------------|----------------------------------------o||
||------14s16---16s14-12-------14s16---16s14-12----------|-11---------14--11-----------------------||
||------------------------------------------------14-----|----14-12------------12-14---------------||
||o------------------------------------------------------|----------------------------------------o||
||-------------------------------------------------------|-----------------------------------------||
|
|   Gtr III
|                                                  ~~                              ~~~
||-------------------------------------------------------|-----------------------------------------||
||o--------/3---------------------/3---------------------|----------------------------------------o||
||---------/4----4s=2--0----------/4----4p=2--0----------|-----------------------------------------||
||-------------------------(2)---------------------2-----|--4----------7---4-----------------------||
||o------------------------------------------------------|-----7--5-------------5--7--------------o||
||-------------------------------------------------------|-----------------------------------------||
|
|   Gtr I
|           PM|          PM|               PM|       PM|                                      PM|
||-------------------------------------------------------|-----------------------------------------||
||o------------------------------------------------------|----------------------------------------o||
||-------------------------------------------------------|-----------------------------------------||
||--0h9-----9-9-----9--------------0h9-----9--9-9--------|--5-------7-(7)----9----(9)-12\-9-9-9-9--||
||o-0-7-----7-7-----7----7--7------0-7-----7--7-7----0-0-|--3-------5-(5)----7----(7)-10\-7-7-7-7-o||
||-------------------------------------------------------|-----------------------------------------||

[ Tab from: http://www.guitartabs.cc/tabs/b/black_sabbath/sabbath_bloody_sabbath_tab_ver_5.html ]
                         ~~                       ~~~~~~~
|-------------------------------------------------------------|
|-------------------------------------------------------------|
|-----14pb16r(14)-12-14--------14pb16r(14)p12-14--------------|
|-----------------------14-----------------------14-(14)------|
|-------------------------------------------------------------|
|-------------------------------------------------------------|
|
|                        ~~                       ~~~~~~~
|-------------------------------------------------------------|
|-------------------------------------------------------------|
|-----14pb16r(14)-12-14--------14pb16r(14)p12-14--------------|
|-----------------------14-----------------------14-(14)------|
|-------------------------------------------------------------|
|-------------------------------------------------------------|
|
|              PM-|        PM|                 PM|       PM|
|-------------------------------------------------------------|
|-------------------------------------------------------------|
|-------------------------------------------------------------|
|-0h9----------9---9--9-----------------0h==9--9--9---9-------|
|-0-7----------7---7--7----7-7----------0---7--7--7---7--0-0--|
|-------------------------------------------------------------|


                                      ~~~~
|----------------------------------------------------|
|-15b17-15-12----------------------------------------|
|---------------14pb16r(14)p12-----------------------|
|--------------------------------14-(14)-------------|
|----------------------------------------------------|
|----------------------------------------------------|
|
|                                     ~~~~
|----------------------------------------------------|
|-15b17-15-12----------------------------------------|
|---------------14pb16r(14)p12-----------------------|
|--------------------------------14-(14)-------------|
|----------------------------------------------------|
|----------------------------------------------------|
|
|                                                PM|
|----------------------------------------------------|
|----------------------------------------------------|
|----------------------------------------------------|
|--5----------7---------(7)----9-----(9)-12\-9-9-9-9-|
|--3----------5---------(5)----7-----(7)-10\-7-7-7-7-|
|----------------------------------------------------|


                                                                                                                  ~~~~
|-----15b17==(15)----(15)r====15p=12------15b17==15------15-15-15r15p12-----|----------------------------------------------------|
|---------------------------------------------------------------------------|-15b17-15-12----------------------------------------|
|---------------------------------------------------------------------------|---------------14pb16r(14)p12-----------------------|
|---------------------------------------------------------------------------|--------------------------------14-(14)-------------|
|---------------------------------------------------------------------------|----------------------------------------------------|
|---------------------------------------------------------------------------|----------------------------------------------------|
|
|                                                                                                                 ~~~~
|---------------------------------------------------------------------------|----------------------------------------------------|
|---------------------------------------------------------------------------|-15b17-15-12----------------------------------------|
|-----14pb15--14pb16--14pb16r(14)-12---12-14-----14pb16==14-14-14r14p12-----|---------------14pb16r(14)p12-----------------------|
|---------------------------------------------------------------------------|--------------------------------14-(14)-------------|
|---------------------------------------------------------------------------|----------------------------------------------------|
|---------------------------------------------------------------------------|----------------------------------------------------|
|
|      PM----|                       PM|                  PM|           PM|                                                  PM|
|---------------------------------------------------------------------------|----------------------------------------------------|
|---------------------------------------------------------------------------|----------------------------------------------------|
|---------------------------------------------------------------------------|----------------------------------------------------|
|-0h9--9-------9---------------9-----------0h=====9-------9--9-----9--------|--5----------7---------(7)----9-----(9)-12\-9-9-9-9-|
|-0-7--7-------7---------------7-----7--7--0------7-------7--7-----7----0-0-|--3----------5---------(5)----7-----(7)-10\-7-7-7-7-|
|---------------------------------------------------------------------------|----------------------------------------------------|


  Gtr II
      PM|   PM|     PM|   PM|                           PM|
|-----------------------------|-----------------------------|
|-----------------------------|-----------------------------|
|-----------------------------|-----------------------------|
|-0h9-9-9-9-----0h9-9-9-9-----|-5-7-(7)---9-(9)-12\-9-9-9-9-|
|-0-7-7-7-7-7-7-0-7-7-7-7-0-0-|-3-5-(5)---7-(7)-10\-7-7-7-7-|
|-----------------------------|-----------------------------|
|
| Gtr III
|         ~             ~
|-----------------------------|-----------------------------|
|-----------------------------|-----------------------------|
|-7h9-9-9-9---9-7h9-9-9-9---7-|-5-7-(7)-7-9-(9)s12--9-9-9-9-|
|-----------------------------|-----------------------------|
|-----------------------------|-----------------------------|
|-----------------------------|-----------------------------|


   Interlude
||-----------------------------------------------------|
||o----------------------------------------------------|
||---14----14----12---14--(14)--14----12---14----------|
||---14----14----12---14--(14)--14----12---14----14-14-|
||o--12----12----10---12--(12)--12----10---12----12-12-|
||--(12)--(12)--(10)-(12)-(12)-(12)--(10)-(12)---------|
|
|                      ~~~~~~~~
||-----------------------------------------------------|
||o----------------------------------------------------|
||-----------------------------------------------------|
||----7s9---7s9---5----7---(7)---7s9---5----7--7s=9--7-|
||o----------------------------------------------------|
||-----------------------------------------------------|


  1.
|------------------------------------||
|-----------------------------------o||
|--9---7--(7)--9---(9)--7---9---7/---||
|--9---7--(7)--9---(9)--7---9---7/---||
|--7---5--(5)--7---(7)--5---7---5/--o||
|-(7)-(5)-(5)-(7)--(7)-(5)-(7)-(5)/--||
|
|------------------------------------||
|-----------------------------------o||
|--4---------------------------------||
|--5---7--(7)--9---(9)--7---9---7/---||
|--4---9--(9)-10--(10)--9--10---9/--o||
|------------------------------------||


 2.
|----------------------------------|--------||
|----------------------------------|--------||
|--9---7--(7)--9---(9)--7---5---7--|--4-----||
|--9---7--(7)--9---(9)--7---5---7--|--4-----||
|--7---5--(5)--7---(7)--5---3---5--|--2-----||
|-(7)-(5)-(5)-(7)--(7)-(5)-(3)-(5)-|-(2)----||
|
|----------------------------------|--------||
|----------------------------------|--------||
|--4-------------------------------|--------||
|--5---7--(7)--9---(9)--7---9---7/-|--4-----||
|--4---9--(9)-10--(10)--9--10---9/-|--2-----||
|----------------------------------|--------||


   Bridge
    $
    PM|           PM----|             PM|           PM----|
                                   9x
||---------------------------------||-----------------------------------|
||o-------------------------------o||-----------------------------------|
||---------------------------------||-----------------------------------|
||---------------------------------||-------------------------------5h7-|
||o-----5s4-5s4-5---------5s4-5-6-o||-----5s4-5s4-5---------5s4-5-6-3h5-|
||--0-0-3s2-3s2-3-0-(0)-0-3s2-3-4--||-0-0-3s2-3s2-3-0-(0)-0-3s2-3-4-----|


   Instrumental Break
||------------------------------------||
||o----------------------------------o||
||------------------------------------||
||--9-9-9-7-9-9--9-(9)\-7\-5-(5)-5h7--||
||o-7-7-7-5-7-7--7-(7)\-5\-3-(3)-3h5-o||
||------------------------------------||


                              To CodD.S. al Coda
|------------------------------------|-----------||
|------------------------------------|-----------||
|------------------------------------|-----------||
|-9-9-9-7-9-9--9-(9)\-7\-5-(5)-7-4-4-|-4---------||
|-7-7-7-5-7-7--7-(7)\-5\-3-(3)-5-----|-2---------||
|------------------------------------|-----------||


                 Outro
               Double Time Q.=144
  &
 9/8             12/8
  Gtr III
|--------------||-----------------|---------------|------------------------|
|--------------||-----------------|---------------|------------------------|
|--------------||-----------------|-x\------------|-(x)\-------------------|
|-4--------(4)-||-(4)-------------|-x\------------|-(x)\-------------------|
|--------------||-----------------|-x\------------|-(x)\-------------------|
|--------------||-----------------|---------------|------------------------|
|
| Gtr II
|                          ~
|--------------||-----------------|---------------|------------------------|
|--------------||-----------------|---------------|------------------------|
|--------------||-----------------|---------------|--4----4-4-----4--4-----|
|-4--------(4)-||-(4)-------------|---------------|--4----4-4-----4--4-----|
|-2--------(2)-||-(2)------2------|---------------|--2----2-2p0---2--2---0-|
|--------------||-----------------|---------------|-------------2----------|


|------------------------|------------------------|
|------------------------|------------------------|
|-(x)\-------------------|-(x)\-------------------|
|-(x)\-------------------|-(x)\-------------------|
|-(x)\-------------------|-(x)\-------------------|
|------------------------|------------------------|
|
|------------------------|------------------------|
|------------------------|------------------------|
|--4----4-4-----4--4-----|--4----4-4-----4--4-----|
|--4----4-4-----4--4-----|--4----4-4-----4--4-----|
|--2----2-2p0---2--2---0-|--2----2-2p0---2--2---0-|
|-------------2----------|-------------2----------|


|------------------------|------------------------|-------------------------|
|------------------------|------------------------|-------------------------|
|-(x)\-------------------|-(x)\-------------------|-(x)\--------------------|
|-(x)\-------------------|-(x)\-------------------|-(x)\--------------------|
|-(x)\-------------------|-(x)\-------------------|-(x)\--------------------|
|------------------------|------------------------|-------------------------|
|
|------------------------|------------------------|-------------------------|
|------------------------|------------------------|-------------------------|
|--4----4-4-----4--4-----|--4----4-4-----4--4-----|--4----4-4-----4--4------|
|--4----4-4-----4--4-----|--4----4-4-----4--4-----|--4----4-4-----4--4------|
|--2----2-2p0---2--2---0-|--2----2-2p0---2--2---0-|--2----2-2p0---2--2---0--|
|-------------2----------|-------------2----------|-------------2-----------|


|---------------------|-----------------------||
|---------------------|-----------------------||
|-4-------------------|-(4)-------------------||
|-4-------------------|-(4)-------------------||
|-2-------------------|-(2)-------------------||
|---------------------|-----------------------||
|
|---------------------|-----------------------||
|---------------------|-----------------------||
|-4--4-4-----4--4-----|--4---4-4-----4--4-----||
|-4--4-4-----4--4-----|--4---4-4-----4--4-----||
|-2--2-2p0---2--2---0-|--2---2-2p0---2--2---0-||
|----------2----------|------------2----------||


 Outro - Solo
|---------------------|---------------------------7----|
|---------------------|------------------7------7------|
|----------7----------|----------7-9b11----9b11--------|
|------7h9---9--7-----|------7h9-----------------------|
|---------------------|--------------------------------|
|---------------------|--------------------------------|
|
|---------------------|--------------------------------|
|---------------------|--------------------------------|
|-4--4-4-----4--4-----|-4--4-4-----4-----4-------------|
|-4--4-4-----4--4-----|-4--4-4-----4-----4-------------|
|-2--2-2p0---2--2---0-|-2--2-2p0---2-----2--------0----|
|----------2----------|----------2---------------------|


|----------------------------------------------------|
|-10b11--10pb12==(10)r==(10)-10pb12r===(10)--10pb12==|
|----------------------------------------------------|
|----------------------------------------------------|
|----------------------------------------------------|
|----------------------------------------------------|
|
|----------------------------------------------------|
|----------------------------------------------------|
|--4------4--------4----------4------4---------------|
|--4------4--------4----------4------4---------------|
|--2------2--------2p=0-------2------2--------0------|
|-------------------------2--------------------------|


|--------------------------------------------|----------------------------------|
|-(10)r===(10)--10pb12==(10)r===(10)--10pb12r|=10--7-(7)--9p7-------------------|
|--------------------------------------------|----------------9p7-----7---7s9---|
|--------------------------------------------|--------------------9-------------|
|--------------------------------------------|----------------------------------|
|--------------------------------------------|----------------------------------|
|
|--------------------------------------------|----------------------------------|
|--------------------------------------------|----------------------------------|
|---4---4---4-------------4---4--------------|--4--4--4-------4-----4-----------|
|---4---4---4-------------4---4--------------|--4--4--4-------4-----4-----------|
|---2---2---2p0-----------2---2--------0-----|--2--2--2p0-----2-----2-------0---|
|----------------2---------------------------|------------2---------------------|


   ~~~                                         ~~~~~~~~~~~~~
|---------------------------|------------------------------|
|---------------------------|------------------------------|
|-(9)----9p7-----7--7-------|------------------------------|
|--------------9------9p7---|-7--7b9==(7)7b9---7b9=========|
|-------------------------9-|------------------------------|
|---------------------------|------------------------------|
|
|---------------------------|------------------------------|
|---------------------------|------------------------------|
|--4---4---4-----4--4-------|-4--4-----4-------4-----4-----|
|--4---4---4-----4--4-------|-4--4-----4-------4-----4-----|
|--2---2---2p0---2--2-----0-|-2--2-----2p0-----2-----2---0-|
|--------------2------------|----------------2-------------|


 ~~~~~~                                     ~     ~~~
|------------------------------|-------------------------|
|------------------------------|-------------------------|
|------------------------------|-------------------------|
|-(7)r=========(7)-----2p0-----|-4----4---4-4--4-(4)-----|
|----------------------------0-|-2----2---2-2--2-(2)-0-2-|
|------------------------------|-------------------------|
|
|------------------------------|-------------------------|
|------------------------------|-------------------------|
|--4---4-4------4---4----------|-4--4-4-----4--4---------|
|--4---4-4------4---4----------|-4--4-4-----4--4---------|
|--2---2-2p0----2---2------0---|-2--2-2p0---2--2-------0-|
|------------2-----------------|----------2--------------|


  ~~~~~~~~~~~~~~~~~~~~~~~~~~~~~~~~        ~~~~~~~~~~~
|----------------------|--------------------------------|
|----------------------|--------------------------------|
|----------------------|--------------------------------|
|-4----4---4-----------|-4----4b5-----2h4-4pb6==(4)r--0-|
|-2----2---2-2----2----|--------------------------------|
|----------------------|--------------------------------|
|
|----------------------|--------------------------------|
|----------------------|--------------------------------|
|-4--4-4-----4--4------|-4--4-4-------4---4-------------|
|-4--4-4-----4--4------|-4--4-4-------4---4-------------|
|-2--2-2p0---2--2----0-|-2--2-2p==0---2---2-----------0-|
|----------2-----------|------------2-------------------|


                           6x
||-------------------------||
||o-----------------------o||
||--x\---------------------||
||--x\---------------------||
||o-x\--------------------o||
||-------------------------||
|
|                          6x
||-------------------------||
||o-----------------------o||
||--4---4-4-----4--4-------||
||--4---4-4-----4--4-------||
||o-2---2-2p0---2--2---0--o||
||------------2------------||



***************************************************************************************
* Generated using Power Tab Editor by Brad Larsen - http://powertab.guitarnetwork.org *
***************************************************************************************
Comments