Black Sabbath - Sabbath Bloody Sabbath Chords & Tabs

 

Sabbath Bloody Sabbath Chords & Tabs

Black Sabbath Chords & Tabs

Version: 3 Type: Tab 0 ratings
1 star 2 stars 3 stars 4 stars 5 stars
comments

Sabbath Bloody Sabbath Tab

   
Artist - Black Sabbath
Song - Sabbath Bloody Sabbath
Album - Sabbath Bloody Sabbath

Tuned down 1 1/2 steps (C# F# B E G# C#)


Main Riff:
----------------------------------------------
----------------------------------------------
----------------------------------------------
--7/9-xx-9-xx-7/9-xx-9-xx-5--7--9--12\9-9-9--
--5/7-xx-7-xx-5/7-xx-7-xx-3--5--7--10\7-7-7--
----------------------------------------------

Chorus 1:
Guitar 1
--7-5-7-5-2-3--3-3--------3\1-4---4---4---4---4---4--3---3---3---3------------------
--5-3-5-3-0-0--0-0--------3\1-1---1---1---1---1---1--0---0---0---0------------------
--7-5-7-5-2-0--0-0-----0h4----2---2---2---2---2---2--0---0---0---0---------7---7----
--5-3-5-3-0-0--0-0--0h2-------2---2---2---2---2---2--0---0---0---0----5-3/7-3/7--7--
--x-x-x-x-x-2--2-2-----------------------------------2---2---2---2-5h7--------------
--x-x-x-x-x-3--3-3-----------------------------------3---3---3---3------------------

Guitar 2
---7-5-7-5-2-3--3-3--------3\1-4---4---4---4---4---4--3---3---3---3-17-15----------------
---5-3-5-3-0-0--0-0--------3\1-1---1---1---1---1---1--0---0---0---0------17-15-----------
---7-5-7-5-2-0--0-0-----0h4----2---2---2---2---2---2--0---0---0---0-----------17-17/19~--
---5-3-5-3-0-0--0-0--0h2-------2---2---2---2---2---2--0---0---0---0----------------------
---x-x-x-x-x-2--2-2-----------------------------------2---2---2---2----------------------
---x-x-x-x-x-3--3-3-----------------------------------3---3---3---3----------------------

Guitar 1
-4-----4-----4-----4-----4------3---3---3---3---------------------
-1-----1-----1-----1-----1------0---0---0---0---------------------
-2-----2-----2-----2-----2------0---0---0---0-------4-------------
-2-----2-----2-----2-----2------0---0---0---0----5-7--7-----------
--------------------------------2---2---2---2-5/7-----------------
--------------------------------3---3---3---3---------------------

Guitar 2
-4-----4-----4-----4-----4------3---3---3---3----------------
-1-----1-----1-----1-----1------0---0---0---0--17------------
-2-----2-----2-----2-----2------0---0---0---0----------------
-2-----2-----2-----2-----2------0---0---0---0----------------
--------------------------------2---2---2---2----------------
--------------------------------3---3---3---3----------------

Guitars 1 and 2
-0---0---0---0---0---0-------------------------
-1---1---1---1---1---1-------------------------
-2---2---2---2---2---2-------------------------
-2---2---2---2---2---2----7-7-7-7--7--7-7------
--------------------------5-5-5-5--5--5-5------
-----------------------------------------------


Chorus 2:
Guitar 1
--7-5-7-5-2-3--3-3--------3\1-4---4---4---4---4---4--3---3---3---3------------------
--5-3-5-3-0-0--0-0--------3\1-1---1---1---1---1---1--0---0---0---0---------8--12~---
--7-5-7-5-2-0--0-0-----0h4----2---2---2---2---2---2--0---0---0---0----------9-12~---
--5-3-5-3-0-0--0-0--0h2-------2---2---2---2---2---2--0---0---0---0----5h7/9---------
--x-x-x-x-x-2--2-2-----------------------------------2---2---2---2-5h7--------------
--x-x-x-x-x-3--3-3-----------------------------------3---3---3---3------------------

Guitar 2   
---7-5-7-5-2-3--3-3--------3\1-4---4---4---4---4---4--3---3---3---3--15-------------
---5-3-5-3-0-0--0-0--------3\1-1---1---1---1---1---1--0---0---0---0-----17-15-17----
---7-5-7-5-2-0--0-0-----0h4----2---2---2---2---2---2--0---0---0---0-----------------
---5-3-5-3-0-0--0-0--0h2-------2---2---2---2---2---2--0---0---0---0-----------------
---x-x-x-x-x-2--2-2-----------------------------------2---2---2---2-----------------
---x-x-x-x-x-3--3-3-----------------------------------3---3---3---3-----------------

Guitar 1
-4-----4-----4-----4-----4------3---3---3---3---------------------
-1-----1-----1-----1-----1------0---0---0---0---------------------
-2-----2-----2-----2-----2------0---0---0---0---------9-7---------
-2-----2-----2-----2-----2------0---0---0---0----5-7/9---9-7------
--------------------------------2---2---2---2-5/7-----------------
--------------------------------3---3---3---3---------------------

Guitar 2
-4-----4-----4-----4-----4------3---3---3---3----------------
-1-----1-----1-----1-----1------0---0---0---0----------------
-2-----2-----2-----2-----2------0---0---0---0----------------
-2-----2-----2-----2-----2------0---0---0---0----------------
--------------------------------2---2---2---2----------------
--------------------------------3---3---3---3----------------

Guitars 1 and 2
-0---0---0---0---0---0-------------------------
-1---1---1---1---1---1-------------------------
-2---2---2---2---2---2-------------------------
-2---2---2---2---2---2----7-7-7-7--7--7-7------
--------------------------5-5-5-5--5--5-5------
-----------------------------------------------

[ Tab from: http://www.guitartabs.cc/tabs/b/black_sabbath/sabbath_bloody_sabbath_tab_ver_3.html ]
Solo:
----------------------------------------------------------------------------------------------
-15-15p12--15-15p12----------------------------15-15p12--15-15p12-----------------------------
-15-15p12--15-15p12---------------14-12--------15-15p12--15-15p12---------------14-12---------
---------14--------14-14~--14-12-------12-14~~---------14--------14-14~~-14-12--------14-14~~-
--------------------------------14--------------------------------------------14--------------
----------------------------------------------------------------------------------------------


-----------------------------------------------------------------------------
------------------------------------------15^(17)-15-12----------------------
-14^(16`14)-12-14p12-----14^(16`14)-12-----------------14^(16`14)-12---------
--------------------14~~--------------14~~--------------------------14~~-----
-----------------------------------------------------------------------------
-----------------------------------------------------------------------------


-17-17-17p15---17-17-17-17p15------------------------------------------------------------
-17-17-17p15---17-17-17-17p15----15^(17)-15-12-------------------------------------------
------------16---------------16---------------14^(16`14)-12------------------------------
-----------------------------------------------------------14~~~~~~~~~~~~~~~~~~~~--------
-----------------------------------------------------------------------------------------
-----------------------------------------------------------------------------------------

Play Before Heavy Part:    
-------------------------------------------------------------------------------------------
-------------------------------------------------------------------------------------------
-------------------------------------------------------------------------------------------
-14--14-12-14--14-12-14--12-11-9-7-5-7--14--14-12-14--14-12-14--12-11-9-7-5-7-4------------
-12--12-10-12--12-10-12--10--9-7-5-3-5--12--12-10-12--12-10-12--10--9-7-5-3-5-2-{Let ring}-
-------------------------------------------------------------------------------------------

Heavy Part
-----------------------------------------------------------------------------
-----------------------------------------------------------------------------
-----------------------------------------------------------------------------
-----------------------------------------------------------------------------
-----5---5---5---5-------5---5-6------5---5---5---5-------5---5-6------------
-0-0-3p0-3p0-3p0-3p0-0-0-3p0-3-4--0-0-3p0-3p0-3p0-3p0-0-0-3p0-3-4------------
(..............pm.............)  (..............pm.............)

-----------------------------------------------------------------------------------------
-----------------------------------------------------------------------------------------
-----------------------------------------------------------------------------------------
-7/9-9-9\7-9-9-12-11-9--7/9-9-9\7-9-9-12-11-9--7/9-9-9\7-9-9-12-11-9-7-4-----------------
-5/7-7-7\5-7-7-10--9-7--5/7-7-7\5-7-7-10--9-7--5/7-7-7\5-7-7-10--9-7-5-2-{Let Ring}------
-----------------------------------------------------------------------------------------


End solo:
-------------------------------------------------------------------------------
-------------------------------------------------------------------------------
-------------------------------------------------------------------------------
-------------------------------------------------------------------------------
-0-2-2-2p0-2-2--0-2-2-2p0--2-2--0-2-2-2p0--2-2--0-2-2-2p0--2-2--0-2-2-2p0--2-2-
----------2--------------2---------------2---------------2---------------2-----

-----------------------------------------------------------------------------
-----------------------------------------------------------------------------
-----------------------------------------------------------------------------
-(14-\-\-\-\-\-\-\-\-\-\-\-\-\-\-\-\-\-\-\-\-\-\-\-\-\-\-\-\-\-\-\-\-\-\-3)--
-(14-\-\-\-\-\-\-\-\-\-\-\-\-\-\-\-\-\-\-\-\-\-\-\-\-\-\-\-\-\-\-\-\-\-\-3)--
-----------------------------------------------------------------------------
(............................pick scrape down neck.........................)

----------------------------------------------------------
-------------------------7-9^(11`9-11`9-11`9-11`9-11`9)---
----------------------7-9---------------------------------
-----5h7/9-7-----5h7/9------------------------------------
--5h7---------5h7-----------------------------------------
----------------------------------------------------------

----------------------------------------------------------------------------------
-7-9-----------------------------7~~----------------------------------------------
-----7~-7^(9`7)-4-7-7^(9`7)-4----7~~----------------------------------------------
-----------------------------7-------(14-\-\-\-\-\-\-\-\-\-\-\-\-\-\-\-\-\-3)-----
------------------------------5~-----(14-\-\-\-\-\-\-\-\-\-\-\-\-\-\-\-\-\-3)-----
----------------------------------------------------------------------------------
                        (begin fade)  (........pick scrape down neck........)

--------------------------------------------------------------
--------------------------------------------------------------
-(19//21)--(19//21)-----------(19//21)------------------------
-(19//21)--(19//21)-(21\\19)--(19//21)-(21\\19)-(21\\19)------
--------------------(21\\19)-----------(21\\19)-(21\\19)------
--------------------------------------------------------------
(...........................pick scrapes.................)
Comments