Black Sabbath - Sabbath Bloody Sabbath Chords & Tabs

 

Sabbath Bloody Sabbath Chords & Tabs

Black Sabbath Chords & Tabs

Version: 4 Type: Bass Tab 0 ratings
1 star 2 stars 3 stars 4 stars 5 stars
comments

Sabbath Bloody Sabbath Bass Tab

BLACK SABBATH
SABBATH BLOODY SABBATH.

INTRO
                                   ~~               ~~ 
   |---|------------|---|----------------|----------------|----------------|
   |-4-|------------|---|----------------|----------------|----------5/----|
   |-4-|------------|---|-5-7-7-7-7--7-7-|-5-7-7-7-7--7-7-|-3--5--7-----7--|
   |---|--(GUITAR)--|5/-|----------------|----------------|----------------|
                                   
           ~~               ~~    
|----------------|----------------|----------------|
|----------------|----------------|----------5-----|
|-5-7-7-7-7--7-7-|-5-7-7-7-7--7-7-|-3--5--7-----7--|
|----------------|----------------|----------------|
                               ...see them burn.___
           ~~               ~~
|----------------|----------------|----------------|
|----------------|----------------|----------5-----|
|-5-7-7-7-7--7-7-|-5-7-7-7-7--7-7-|-3--5--7-----7--|
|----------------|----------------|----------------|

           ~~               ~~ 
|----------------|----------------|-----5----7----------|
|----------------|----------------|---5----7------5-----|
|-5-7-7-7-7--7-7-|-5-7-7-7-7--7-7-|-3----5-----7-----7--|
|----------------|----------------|---------------------|

           ~~               ~~
|----------------|----------------|----------------|
|----------------|----------------|----------5-----|
|-5-7-7-7-7--7-7-|-5-7-7-7-7--7-7-|-3--5--7-----7--|
|----------------|----------------|----------------|

CHORUS

|-----------------------------------------------12-(12)-------12----|
|----------------------------------------12--12--------12--12----12-|
|-12---12----12-12--(12)---12----12--10-----------------------------|
|---------12------------12----12------------------------------------|
  NO-BOD-Y___       WILL EV-ER...
[ Tab from: http://www.guitartabs.cc/tabs/b/black_sabbath/sabbath_bloody_sabbath_btab_ver_4.html ]
|-------------------------------------------------------------------|
|---------------------------------------12------12----12------------|
|-12--12-12------12---12-----12-----10------10-----10-----10-11-12--|
|-------------12----------12----12----------------------------------|


|------------------------------------------------------------------------|
|------------------------------------12----------------12-12-12-12-12-12-|
|-12-12-----12---12-12-----12----12-------12--12-----12------------------|
|--------12-------------12----12-----------------10----------------------|
                                              LIES_______________________.

BACK TO VERSE 
CHORUS

PRE-SOLO
|-------------------|--------------------------------|
|-------------------|-12--------------12----------12-|
|-12--12----12---12-|------12------12----12----12----|
|--------10---------|---------10------------10-------|

(SOLO)
(PLAY VERSE RIFF)

BRIDGE


||------------------------------------|------------------------||----------|
||.-----------------------------------|-----------------------.||----------|
||.-12--12-12----12--12----12---12-12-|-10--9--7--9-10-10-12--.||-7--------|
||-----------12--------12---12--------|------------------------||----------|

VERSE 2

||------------------|--------------|
||.-----------------|--------------|
||.-----------------|--------------|
||--0-0-3-2-3-2-3-0-|-0-0-3-2-3-4--|

||-----------|--------------||---------------------------------|
||.----------|-5-(5)--4--2-.||---5-(5)---4--2--4---------------|
||.----------|-------------.||-------------------2-------------|
||--(GUITAR)-|--------------||---------------------------------|

SWING 8ths          REPEAT TILL FADE
|------------------||---------------------||
|-----9-9------9-9-||.-----9-9-9-7---9-9-.||
|-7-9------7-9-----||.-7-9---------9-----.||
|------------------||---------------------||


PLEASE RATE AND COMMENT.
Comments