Black Sabbath - Planet Caravan Chords & Tabs

 

Planet Caravan Chords & Tabs

Black Sabbath Chords & Tabs

Version: 1 Type: Tab 0 ratings
1 star 2 stars 3 stars 4 stars 5 stars
comments

Planet Caravan Tab

   
#-----------------------------PLEASE NOTE-------------------------------------#
#This OLGA file is the author's own work and represents their interpretation  #
#of the song. You may only use this file for private study, scholarship, or   #
#research. Remember to view this file in Courier, or other monospaced font.   #
#See http://www.olga.net/faq/ for more information.                           #
#-----------------------------------------------------------------------------#

Subject: b/black_sabbath/planet_caravan.tab
Date: Mon, 18 Sep 1995 18:51:17 -0500 (CDT)
From: komanduri saranga 

Please note: original post from [tgannon@local.host (spideir)]    
 
 "PLANET CARAVAN" (Black Sabbath) as covered by Pantera
 ================
 -- comp. Black Sabbath [Tony Iommi], 1970 (from _Paranoid_)
 -- covered on "Far Beyond Driven", 1994  
   -- rhythm guitar & bass tab/"arr." by tcg, 198?, 1994
   -- 4/4 // key of Em // Slowly
   -- rhythm guitar: reverb preferred (phaser or similar "wave" device
        nice, too--or just face amp into blowing fan [kiddin'])
   -- guitar plays 2 measures (one time thru) before bass comes in . . . .
   -- Lead from Pantera version also
   --In Pantera's version, there is an acoustic layered with a clean electric
played with the bridge
            pickup on, and this guitar plays the solo as well 
   
NOTICE: CAREFUL !!!!!!!! The lead is not correct as to timing and note    
                         space, the only exception is the (sometimes)
                         long spaces between phrases. it should be easy to
count
                         along with (8 beats...)
   
   GUITAR                                              [repeat thruout; fade]
     Em(/9)        .                     "DM6/11" [sic: GM7/D]

||----------------0-------0====-------|------------------------------------||

||----------------0-------0====-------|---------------0============--------||

||o---------------0-------0====-------|-----------0============---0---2*--o||

||o------------5----------4====---2---|-------4============---4====-------o||

||---------2--------------------------|--/5============---5========--------||

||----0============================---|------------------------------------||
 ||
                                                                        ||
 ||    1   &   2   &   3   &   4   &       1   &   2   &   3   &   4   &
   ||
 || BASS PART

                                                                           ||

||--------------------------------7---|------------------------------------||
 ||o---------------------------7h9-----|-------------------(7b)8 r
7---5---o||

||o---7-------%---7-------7-----------|---5-------%---5-------------------o||

||------------------------------------|------------------------------------||
                                                           ^^^^^^^^^^^^^
 . : staccato (cut short--first Em chord)  in Pantera version this arpeggio
is let ring
 * : slight bend [my own "add"?--as may be "2->4" slide in 1st measure]
 % : eighth-note rest
 r : "return" of bend
 ====: hold tone thru count (legato arpeggio)
 ^^^^: occasional variations at this point (listen to recording)
  
 ________
 LEAD . . .

                                                                      gliss
||-------------------------------------------------------~--------------~----|

||------------------------------------------1/4------------------------------|

||--------------------------h-p-p----------b---------------------------------|

||-4----------------5-7----7-8-7-5---7-5---5--------p-----------5\4----------|

||----5--7----/7-----------------------------------7-5---7--5/7------5--7\---|

||---------------------------------------------------------------------------|

                                               
|---------------------------------~-------------------------p----------------|

|--------------------------------------------------------7-8-7--5-7----------|

|------------------------------------------------------x-------------7\6-----|

|------5-7--8\7---8\7--8\7---5----5-------5-4---------x----------------------|

|55-5---------------------------7------7-------7------^----------------------|

|-----------------------------------------------fluid
downstroke-------------|

|------------~--------------p--------------p-----------------p---------------|

|--p--------------------7--8-7----10---7--8-7--7---10----7--8-7-----7---7----|

|-7-6--7--------------x---------7----------------------7---------9-----------|

|----------7\4------x--------------------------------------------------------|

|-------------------^--------------------------------------------------------|

|-----------------downstroke-------------------------------------------------|


|---p--------------------------------------------------~---------~-----------|

|--8-7\5--7--p-------p-------------------------------------------------------|

|-----------7-6--7--7-6\4--6---p----p--------p-------------------------------|

|-----------------------------7-5--7-5---4--5-4---4-----------/9-5-----------|

|-----------------------------------------------5----5/7-(7)\----------------|

|----------------------------------------------------------------------------|

                                                     
                                                     full
|-----------------------------------------------------b----~-----------------|

|-----------------------------------------------------8--------------------11|

|------------------h-p-p-------------------------7-9-------9---(9)\/(7)--9---|

|--5--7---7/8--7--7-8-7-5---7-5----------5--7/8------------------------------|

|-------------------------------7--(7)\--------------------------------------|

|----------------------------------------------------------------------------|

     
     1/2                                                full
|---b---R--p---------------h--p--------------------------b--R~---------------|

|--10--(10)-8---10----8--10-11-10----(8)-10-----8-10-10--8-(8)--(8)\---------|

|-------------9----9--------------------9-----------------------------/12----|

|----------------------------------------------------------------------------|

|----------------------------------------------------------------------------|

|----------------------------------------------------------------------------|

                                                         
                                                         full
|-------p------------------p------------------p-----------b~--R--------12----|

|-15--15-14----------14--14-13---------13---13-11--------10--(10)----x-------|

|------------15--12------------14--11-------------13-10
-----------x---------|
|----------------------------------------------------------------------------|

|----------------------------------------------------------------------------|

|---------------------------------------------------------------downstroke---|

                 
                 b(full)     b(full) R                      full
|----14-15-17---17--~-------17------(17)---15\14---p---15---b-----~----------|

|------------------------------------------------17-15-----15----(15)--------|

|----------------------------------------------------------------------------|

|----------------------------------------------------------------------------|

|----------------------------------------------------------------------------|

|----------------------------------------------------------------------------|

        1/4
|--------b---R--p---------~----------------------h-p-h-p-----------~---------|

|-------15--(15)-12----------------------h------7-8-7-8-7---9----7/9---------|

|-----x----------------15-14---(14)-----6-7\6--------------------------------|

|---x------------------------------------------------------------------------|

|----------------------------------------------------------------------------|

|-downstroke-----------------------------------------------------------------|

                                            
                                            1\2
|----------------------------------------------------------------------------|

|-----h-p--------------------------------------------------------------------|

|----6-7-6-------6-------p--------4------------------------------------------|

|-------------9-----7---5-4--5/7-----5/7\5-----------------------------------|

|--------------------------------------------b---R-----5----/11--------------|

|--------------------------------------------5--(5)--3-----------------------|


|--------------------------------------------------------------12----p-------|

|----------------------h-------12-----12----12----p--p--h--h-------15-12-----|

|-----------12--14---12-14--15----15-----15-----15-14-12-14-15---------------|

|-12--14--14--14--14---------------------------------------------------------|

|---14--14-------------------------------------------------------------------|

|----------------------------------------------------------------------------|

           
           full     full      2 steps    2 steps                    h  h
|-----------b---12---b---12---b------12----b-------12---~---------17-18-19---|

|--p--p----15-------15--------15----------15-----------15------x-------------|

|15-14-12----------------------------------------------------x---------------|

|----------------------------------------------------------------------------|

|----------------------------------------------------------------------------|

|----------------------------------------------------------------------------|


   p  p                              p
|15-14-12---~-----------------17---16-15-----17----------------------------~~|

|----------15--------------x--------------17----17\15---12--15----p----------|

|------------------------x--------------------------------------15-12---14---|

|---------------------------------------------------------------------14--14-|

|----------------------------------------------------------------------------|

|----------------------------------------------------------------------------|

       
       b 1/2  R  p                 full                  1/2  
|-----14-----(14)-12---15-----12---b---------p-----------b----R--p-----------|

|---x---------------------15-------15----(15)-12-----12-14---(14)-12---------|

|-x-----------------------------------------------15-------------------------|

|----------------------------------------------------------------------------|

|----------------------------------------------------------------------------|

|----------------------------------------------------------------------------|

    
    1/4
|------------------~----------~-----------~----------------------------------|

|----b--R----p-----------------------------------p--------p------------------|

|---14--(14)--12--14--------(14)------11-------14-12----12-11---11-----------|

|---------------------------------14------12\--------------------------------|

|----------------------------------------------------------------------------|

|----------------------------------------------------------------------------|


|----------------------------------------------------------------------------|

|----------------------------------------------------------------------------|

|----p------------p----------------------------------------------------------|

|--14-12\11-----12-11-------p------------------------------------12-13-14----|

|-------------------------14-12\10-----------9--10---------12-14-------------|

|---------------------------------------------------10/12\-------------------|

         
         1/2                1/2                                 b full  R
|----------------------------------~----------------------------17-----(17)--|

|---------b---R---------------b---R---------------------------x--------------|
[ Tab from: http://www.guitartabs.cc/tabs/b/black_sabbath/planet_caravan_tab.html ]
|-12-14--14--(14)---12--14---14--(14)-----12----14----------x----------------|

|-----------------------------------------------------14---------------------|

|----------------------------------------------------------------------------|

|----------------------------------------------------------------------------|

              b full R                 b full R  p         b 1 1/2 steps
|--15---17---17-----(17)----15----17---17----(17)--15--17------------------|-|

|----------------------------------------------------------17--------------|-|

|--------------------------------------------------------------------------|-|

|--------------------------------------------------------------------------|-|

|--------------------------------------------------------------------------|-|

|--------------------------------------------------------------------------|-|


--------------------end of tab.



Date: Mon, 28 Jul 1997 11:18:16 -0300
From: Etienne Gauthier 

Planet Caravan
                           By Black Sabbath
                             off of their
                             "Paranoid"
                               album
                      Tabbed by Adam St-Laurent    

  Intro:Rhy.fig.1                          (cont.rhy.fig.1 till
solo)     
 |-------------------0---0-------------------------------------------|
 |-------------------0---0--------------------0----------------------|
 |-------------------0---0---------------0-------------------0-------|
 |-------------4-----5---4----------4-------------------4---------7--|
 |--------7--------------------5-------------------5-----------------|
 |---0---------------------------------------------------------------|

  Solo:
 |------------------------------------------------------------|
 |------------------------------------------------------------|
 |---------------------------------------2---2^3^2----2-------|
 |--4------4-------2--2--2--------2--5--------------5------5--|
 |-------------5----------------------------------------------|
 |------------------------------------------------------------|

 |-----------------------------------------------------------------|
 |-----------------------------------------------------------------|
 |------------------------------------------2--3---3^2---3--3^2----|
 |-5--2--2----2---5--2---2---2---2-----2--5---------------------5--|
 |---------------------5-------------------------------------------|
 |-----------------------------------------------------------------|

 |----------------------------------------2-3^2----2---------------2-|
 |-----------------------------------------------5---3^2---2--3--5---|
 |-2-----------------------------------------------------4-----------|
 |-----5---5---5---5---2---2---2---2---------------------------------|
 |-------------------------------------------------------------------|
 |-------------------------------------------------------------------|

 |-3--5--2-----2-----------------------------------------------------|
 |----------3-----3^2-----2^3^2-----2----2----------------------3----|
 |---------------------4---------4---------------------1--2/^4-----4-|
 |------------------------------------------------2--4---------------|
 |-------------------------------------------------------------------|
 |-------------------------------------------------------------------|

 |-3--2^3^2-----2-------------------2--5--2^3^2----2--|
 |-----------------3^2-----2--3--5--------------------|
 |----------------------------------------------------|
 |----------------------------------------------------|
 |----------------------------------------------------|
 |----------------------------------------------------|

 |-2------------------------------------------------|
 |----3^2----2^3^2-----2^3^2-----2^3^2-----2--3--5--|
 |------------------4---------4---------4-----------|
 |--------------------------------------------------|
 |--------------------------------------------------|
 |--------------------------------------------------|



 |-2--5^2--2^3^2-----2--------------------------------------3--8---5-|
 |----------------3-----3----2--2----------------2--3--4--5----------|
 |------------------------------------------2--4---------------------|
 |-------------------------------------2--5--------------------------|
 |-------------------------------------------------------------------|
 |-------------------------------------------------------------------|

 |-3--2^3^2-------------2--3^5^2----2---------------------------2--5-|
 |-----------3--2--3--5---------------3^2----2^3^2---2-3-2--3-5------|
 |----------------------------------------4--------4-----------------|
 |-------------------------------------------------------------------|
 |-------------------------------------------------------------------|
 |-------------------------------------------------------------------|

 |-7-----------------------------------------------------------------|
 |----10^11^10-8-7^8^7----7--------------8^10^8^7--------------------|
 |---------------------7-----7^6-7-9--------------9^11^9^7-----------|
 |---------------------------------------------------------9^11^9^7--|
 |-------------------------------------------------------------------|
 |-------------------------------------------------------------------|

   Em11                               Dmaj7
 |-------------------------------------------------------------|
 |-------------------------------------------------------------|
 |-------------------------------------------------------------|
 |-7^8^7^5------------------------------4^5^4---4--------------|
 |---------7---5---5---7---7------------------------5---5------|
 |-------------------------------------------------------------|

   Em11                           Dmaj7
 |-------------------------------------------------------------------|
 |-------------------------------------------------------------------|
 |--------------2---2^3^2-------------------2--3--4--2----2^3^2------|
 |---2---2---5---------------5-2------2---5---------------------5--2-|
 |-5-----------------------------------------------------------------|
 |-------------------------------------------------------------------|

   Em11        
 |----------------------------------------------|
 |----------------------------------------------|
 |---------2--2^3^2--2^3^2--2^3^2---------------|
 |-2----5---------------------------5----2------|
 |----------------------------------------------|
 |----------------------------------------------|

   Dmaj7
 |----------2----------------------------------------|
 |-------------3---------2^3^2-----2--------2--3--5--|
 |----------------4-------------4-----2--4-----------|
 |---------------------------------------------------|
 |---------------------------------------------------|
 |---------------------------------------------------|




   Em11
 |-2--3--3-----5--2^3^2-----2------------------|
 |-----------------------------3^2-----2--2----|
 |---------------------------------------------|
 |---------------------------------------------|
 |---------------------------------------------|
 |---------------------------------------------|

   Dmaj7 
 |---------------12--14-----15-----14^12----12--------|
 |-----------12---------------------------------15----|
 |-------12-------------------------------------------|
 |----------------------------------------------------|
 |----------------------------------------------------|
 |----------------------------------------------------|

   Em11
 |-12---------------------------------------------------------------|
 |-----15^14^12-----------------------------------------------------|
 |---------------14--14^15^14^12--12--12^14^12^11--11--11^12^9------|
 |--------------------------------------------------------------12--|
 |------------------------------------------------------------------|
 |------------------------------------------------------------------|

   Dmaj7                                            Em11
 |-------------------------------------------------------------------|
 |-------------------------------------------------------------------|
 |-------------------------------------------------------------------|
 |-12-11^12^11----7--5^7^5----5--5^7^5-------------------------------|
 |----------------------------------------5--5^7^5---5--7--7---7---7-|
 |-------------------------------------------------------------------|

   Dmaj7                             Em11
 |--------2----3^2----2-----------------------------------|
 |------------------------3------3----3--5---5------------|
 |----------------------------4---------------------------|
 |--------------------------------------------------------|
 |--------------------------------------------------------|
 |--------------------------------------------------------|

   Dmaj7                                     Em11
 |--------------------------------------------14-12--14--|
 |-------------------------------------------------------|
 |-------15---14---12^14-12-----------12-14--------------|
 |---------------------------14-12^14--------------------|
 |-------------------------------------------------------|
 |-------------------------------------------------------|

                         Dmaj7   
 |----12^14^12----12-12----------15-15^17^15---14-------5--5^6^5--3--|
 |-15----------15----------------------------------------------------|
 |-------------------------------------------------14~~--------------|
 |-------------------------------------------------------------------|
 |-------------------------------------------------------------------|
 |-------------------------------------------------------------------|

   Em11                            Dmaj7    
 |-3----------3-5--5^6^5---3-------------------3-4-5--3--2^3^2-------|
 |----5-----5------------5-------3-------3-4-5------------------3----|
 |-----------------------------4-------4---------------------------4-|
 |-------------------------------------------------------------------|
 |-------------------------------------------------------------------|
 |-------------------------------------------------------------------|

   Em11 (start to fade)    Dmaj7
 |----------------------------------------3-2^3^2---2-----|
 |--2-----------------------------5-5-5-----------5---3---|
 |-----3----1-2---1---------------------------------------|
 |-------5------------------------------------------------|
 |--------------------------------------------------------|
 |--------------------------------------------------------|

   Em11                   Dmaj7
 |------------------------------------------------------|
 |-3-5-5-5---5-5-5--------------------------------------|
 |------------------------------------------------------|
 |---------------------------------------4^5^4---4^5^4--|
 |------------------------------------------------------|
 |------------------------------------------------------|

   Em11                      Dmaj7
 |---------------------------------------------------------|
 |---------------------------------------------------------|
 |---------------------------------------------------------|
 |-4-------------------------------------------------------|
 |--------5---5---5/^7---7----------------5---7---8----5---|
 |---------------------------------------------------------|

   Em11                             Dmaj7                 (fade out)
 |------------------------------------------------------------------||
 |----------------------------------------------7-------7------7----||
 |---------------------------------------------------7-----7------7-||
 |-7^8^7^5--7------5----7^8^7^5-------------------------------------||
 |-------------------------------7----------------------------------||
 |------------------------------------------------------------------||

   *Em11    *Dmaj7
 |---5---------5-----|
 |---7---------7-----|
 |---7---------6-----|
 |---5---------7-----|
 |---7---------5-----|
 |---0---------------|


     b:bend
   ^ ^:hammer-on or pull-off
  /or\:glissendo
  ~~~~:vibrato

Comments