Black Sabbath - Paranoid Without Guitar Solo Chords & Tabs

 

Paranoid Without Guitar Solo Chords & Tabs

Black Sabbath Chords & Tabs

Version: 1 Type: Tab 0 ratings
1 star 2 stars 3 stars 4 stars 5 stars
comments

Paranoid Without Guitar Solo Tab

#----------------------------------PLEASE NOTE--------------------------------#
#This file is the author's own work and represents their interpretation of the#
#song. You may only use this file for private study, scholarship, or research.#
#-----------------------------------------------------------------------------#
#-- File created with Instab - http://www.pconline.com/~smcarey/instab.html --#
#-----------------------------------------------------------------------------#

Author/Artist: Black Sabbath
Title: Paranoid
Album: Paranoid
Transcribed by: Jerry Casperson
Email: springer@2die4.com

this is the intro verse interlude verse and bridge

---------------------|---------------------------------------|----------------
---------------------|---------------------------------------|----------------
---------------------|---------------------------------------|----------------
---------------------|---------12---14------------12---------|----------------
-12-14--12-14--12-14-|-12--14------------12---14--------14---|-12-14--12-14---
-12-----12-----12----|---------------------------------------|-12-----12------
                                                                              

--------------------------|----------------------------------------|----------
--------------------------|----------------------------------------|----------
--------------------------|----------------------------------------|----------
--------------------------|----------12----14------------12--------|----------
-12-14----12-14----12-14--|-12---14-------------12---14-------14---|----------
-12-------12-------12-----|----------------------------------------|----------
                                                                              

---------------------------------|--------------------------|-----------------
---------------------------------|--------------------------|-----------------
---------------------------------|--------------------------|-----------------
-14--14--14--14--14--14--14--14--|--14--14--14--14--14--14--|-12--12--12--12--
-14--14--14--14--14--14--14--14--|--14--14--14--14--14--14--|-12--12--12--12--
-12--12--12--12--12--12--12--12--|--12--12--12--12--12--12--|-10--10--10--10--
                                                                              
[ Tab from: http://www.guitartabs.cc/tabs/b/black_sabbath/paranoid_without_guitar_solo_tab.html ]
-----------------|---------------------|--------------------------------|-----
-----------------|-----------------12--|--------------------------------|-----
-----------------|-12--------------12--|--------------------------------|-----
-12--12--12--12--|-12---12----14---12--|-14--14--14--14--14--14--14--14-|-----
-12--12--12--12--|-10---12----14-------|-14--14--14--14--14--14--14--14-|-----
-10--10--10--10--|------10----12-------|-12--12--12--12--12--12--12--12-|-----
                                                                              

-------------------------|---------------------------------|------------------
-------------------------|---------------------------------|------------------
-------------------------|---------------------------------|-12---------------
-14--14--14--14--14--14--|-12--12--12--12--12--12--12--12--|-12--12--14-------
-14--14--14--14--14--14--|-12--12--12--12--12--12--12--12--|-10--12--14-------
-12--12--12--12--12--12--|-10--10--10--10--10--10--10--10--|-----10--12--0-0--
                                                                              

-|----------------|------------------|---------------------------------|------
-|----------------|------------------|---------------------------------|------
-|----------------|------------------|---------------------------------|------
-|-14--------\10--|-10------12-------|-14--14--14--14--14--14--14--14--|------
-|-14--------\10--|-10------12-------|-14--14--14--14--14--14--14--14--|------
-|-12--------\8---|-8-------10-------|-12--12--12--12--12--12--12--12--|------
                                                                              

-------------------------|---------------------------------|------------------
-------------------------|---------------------------------|------------------
-------------------------|---------------------------------|------------------
--14--14--14--14--14--14-|-14--14--14--14--14--14--14--14--|-14--14--14--14---
--14--14--14--14--14--14-|-14--14--14--14--14--14--14--14--|-14--14--14--14---
--12--12--12--12--12--12-|-12--12--12--12--12--12--12--12--|-12--12--12--12---
                                                                              

----------|--------------------------------|----------------------|-----------
----------|--------------------------------|------------------12--|-----------
----------|--------------------------------|-12---------------12--|-----------
-14--14---|-12--12--12--12--12--12--12--12-|-12--12------14---12--|-----------
-14--14---|-12--12--12--12--12--12--12--12-|-10--12------14-------|-----------
-12--12---|-10--10--10--10--10--10--10--10-|-----10------12-------|-----------
                                                                              

Comments