Black Sabbath - Paranoid Chords & Tabs

 

Paranoid Chords & Tabs

Black Sabbath Chords & Tabs

Version: 8 Type: Tab 0 ratings
1 star 2 stars 3 stars 4 stars 5 stars
comments

Paranoid Tab

Black Sabbath, Pariniod.
 Tabbed by brad,punk@hotmail.com.
  
----------------------------
----------------------------
------------------9------9
--------------9--7--9--7 repeat 3 more times
--9--9--9--7------7----
--7--7--7----------------
[ Tab from: http://www.guitartabs.cc/tabs/b/black_sabbath/paranoid_tab_ver_8.html ]
-------------------------------------------------------------------
-------------------------------------------------------------------
-------------------------------------------------------------------
-----------------------------------------------------------7------ :
--999999999999999--777777777777-57--9
--777777777777777--555555555555---5--7


-----------------------------------------------            ------------
-----------------------------------------------            ------------    
-----------------------------------------------            ------------          
----------------------------------------------- repeat ------------  
--9---5--7----------------------------------            -15slidedown   --7---3--5--0000000000000000            ------------

thats all i know 
:: Ultimate Guitar Archive :: 
http://www.ultimate-guitar.com 

 
Comments