Black Sabbath - Paranoid Chords & Tabs

 

Paranoid Chords & Tabs

Black Sabbath Chords & Tabs

Version: 6 Type: Tab 4 ratings
1 star 2 stars 3 stars 4 stars 5 stars
comments

Paranoid Tab

h=hammer on

Intro
D----------------------------------------------------------------12---14h-------------12-----14h
A---14-------------------14-------------14--------12----14h-------------12---14h-----------
E---12-------------------12-------------12------------------------------------------------------

Verse
D-------------------------------------------------------------------------------------------------------------------
A----14----14------14-----14-----14-----14-----14----14----14-----14----14----14---14---14---14--14
E----12----12------12-----12-----12-----12-----12----12----12-----12----12----12---12---12---12--12
[ Tab from: http://www.guitartabs.cc/tabs/b/black_sabbath/paranoid_tab_ver_6.html ]
G------------------------------------------------------------------------------------------------12------
D------------------------------------------------------------------------12---------------------12-------
A---12------12------12------12------12-----12-----12---12-------10---12-----14-----------------
E---10------10------10------10------10-----10-----10---10-------------10-----12-----------------

Bridge
A-14------------------------10---------12------------14-14-14-14-14-14-14-14-14-14-14-14-14-14-14-14
E-12-------------------------8---------10-------------12-12-12-12-12-12-12-12-12-12-12-12-12-12-12-12


Turn Around
A-14--------------------------------------------12-------------------------------------------------------------------------
E-12--------------------------------------------10------------------------------------------------------------------------


Intro=x4
Verse=x2
Bridge=x2
Verse-x2
Turn Around=x1
Verse=x14
Bridge=x2
Verse=x4


The only thing that is missing is the solo.
Comments