Black Sabbath - Paranoid Chords & Tabs

 

Paranoid Chords & Tabs

Black Sabbath Chords & Tabs

Version: 14 Type: Tab 0 ratings
1 star 2 stars 3 stars 4 stars 5 stars
comments

Paranoid Tab

This song is in standard tuning. I take all credit for it except the Solo which 
I stole. Anyway I think it sounds perfect. I'll leave it up to you to decide.

--------------------------------------------------
--------------------------------------------------
--------------------------------------------------
-9-9-9-----7h9-----7h9----9-9-9-----7h9-----7h9---
-9-9-9-7h9-----7h9--------9-9-9-7h9-----7h9-------
-7-7-7--------------------7-7-7-------------------

--------------------------------------------------
--------------------------------------------------
--------------------------------------------------
-9-9-9-----7h9-----7h9----9-9-9-----7h9-----7h9---
-9-9-9-7h9-----7h9--------9-9-9-7h9-----7h9-------
-7-7-7--------------------7-7-7-------------------

-------------------------------------------------------
-------------------------------------------------------
-------------------------------------------------7-----
-9-9-9-9-9-9-9-9-9-9-9-9-9-9-9-9-7-7-7-7-7-7-7-7-7-7-9-
-9-9-9-9-9-9-9-9-9-9-9-9-9-9-9-9-7-7-7-7-7-7-7-7-5-7-9-
-7-7-7-7-7-7-7-7-7-7-7-7-7-7-7-7-5-5-5-5-5-5-5-5---5-7-

-------------------------------------------------------
-------------------------------------------------------
-------------------------------------------------7-----
-9-9-9-9-9-9-9-9-9-9-9-9-9-9-9-9-7-7-7-7-7-7-7-7-7-7-9-
-9-9-9-9-9-9-9-9-9-9-9-9-9-9-9-9-7-7-7-7-7-7-7-7-5-7-9-
-7-7-7-7-7-7-7-7-7-7-7-7-7-7-7-7-5-5-5-5-5-5-5-5---5-7-

-------------------------------
-------------------------------
-------------------------------
-9----9--9----------9----9--9--
-9----9--9----------9----9--9--
-7----7--7----------7----7--7--

-------------------------------------------------------
-------------------------------------------------------
-------------------------------------------------7-----
-9-9-9-9-9-9-9-9-9-9-9-9-9-9-9-9-7-7-7-7-7-7-7-7-7-7-9-
-9-9-9-9-9-9-9-9-9-9-9-9-9-9-9-9-7-7-7-7-7-7-7-7-5-7-9-
-7-7-7-7-7-7-7-7-7-7-7-7-7-7-7-7-5-5-5-5-5-5-5-5---5-7-

-------------------------------------------------------
-------------------------------------------------------
-------------------------------------------------7-----
-9-9-9-9-9-9-9-9-9-9-9-9-9-9-9-9-7-7-7-7-7-7-7-7-7-7-9-
-9-9-9-9-9-9-9-9-9-9-9-9-9-9-9-9-7-7-7-7-7-7-7-7-5-7-9-
-7-7-7-7-7-7-7-7-7-7-7-7-7-7-7-7-5-5-5-5-5-5-5-5---5-7-

---------------------------
---------------------------
---------------------------
-9-------9-------9-------9-
-9-------9-------9-------9-
-7-------7-------7-------7-

-------------------------------------------------------
-------------------------------------------------------
-------------------------------------------------7-----
-9-9-9-9-9-9-9-9-9-9-9-9-9-9-9-9-7-7-7-7-7-7-7-7-7-7-9-
-9-9-9-9-9-9-9-9-9-9-9-9-9-9-9-9-7-7-7-7-7-7-7-7-5-7-9-
-7-7-7-7-7-7-7-7-7-7-7-7-7-7-7-7-5-5-5-5-5-5-5-5---5-7-

-------------------------------------------------------
-------------------------------------------------------
-------------------------------------------------7-----
-9-9-9-9-9-9-9-9-9-9-9-9-9-9-9-9-7-7-7-7-7-7-7-7-7-7-9-
-9-9-9-9-9-9-9-9-9-9-9-9-9-9-9-9-7-7-7-7-7-7-7-7-5-7-9-
-7-7-7-7-7-7-7-7-7-7-7-7-7-7-7-7-5-5-5-5-5-5-5-5---5-7-

-------------------------------------------------------
-------------------------------------------------------
-------------------------------------------------7-----
-9-9-9-9-9-9-9-9-9-9-9-9-9-9-9-9-7-7-7-7-7-7-7-7-7-7-9-
-9-9-9-9-9-9-9-9-9-9-9-9-9-9-9-9-7-7-7-7-7-7-7-7-5-7-9-
-7-7-7-7-7-7-7-7-7-7-7-7-7-7-7-7-5-5-5-5-5-5-5-5---5-7-

-------------------------------------------------------
-------------------------------------------------------
-------------------------------------------------7-----
-9-9-9-9-9-9-9-9-9-9-9-9-9-9-9-9-7-7-7-7-7-7-7-7-7-7-9-
-9-9-9-9-9-9-9-9-9-9-9-9-9-9-9-9-7-7-7-7-7-7-7-7-5-7-9-
-7-7-7-7-7-7-7-7-7-7-7-7-7-7-7-7-5-5-5-5-5-5-5-5---5-7-

------------------------------------------------
------------------------------------------------
-12p9----9-----9----9---------------------------
------12---------12---12-9----------------------
-----------------------------10h12-10h12-10\7-7-
------------------------------------------------

-------------------------------------------------------
-------------------------------------------------------
---------------------7h9-9-----8-10-10b-12r10p8-10b12=-
-----------------7h9-------7-9-------------------------
-10-7---7---7h10---------------------------------------
-------------------------------------------------------
[ Tab from: http://www.guitartabs.cc/tabs/b/black_sabbath/paranoid_tab_ver_14.html ]
-------------------------------------------------------
-=r10p8-10--8---------------------17-15--17--17--17-15-
--------------9-9-9--7-9-9-9-9/16----------------------
-------------------------------------------------------
-------------------------------------------------------
-------------------------------------------------------

-17b19-17b19-17b19r17p15-----15p12----------------------------
-------------------------17--------15-15p12-------------------
--------------------------------------------14-12-14-14p12----
-----------------------------------------------------------14-
--------------------------------------------------------------
--------------------------------------------------------------

------------------------------------------------------------
------------------------------------------------------------
-12----12-14b16r14-12-----14b16--12h14p12----12-------------
----14------------------------------------14----14----------
---------------------------------------------------12h13h14-
------------------------------------------------------------

--------------------------------------------------------------
--------------------------------------------------------------
----------------------------------------12--------------------
-12---------------------------12--12-14----14-12--14-12----14-
-----14-12-14p12----12h13h14----------------------------------
-----------------15-------------------------------------------

-------------------------------------------------------
-------------------------------------------------------
-------------------------------------------------7-----
-9-9-9-9-9-9-9-9-9-9-9-9-9-9-9-9-7-7-7-7-7-7-7-7-7-7-9-
-9-9-9-9-9-9-9-9-9-9-9-9-9-9-9-9-7-7-7-7-7-7-7-7-5-7-9-
-7-7-7-7-7-7-7-7-7-7-7-7-7-7-7-7-5-5-5-5-5-5-5-5---5-7-

-------------------------------------------------------
-------------------------------------------------------
-------------------------------------------------7-----
-9-9-9-9-9-9-9-9-9-9-9-9-9-9-9-9-7-7-7-7-7-7-7-7-7-7-9-
-9-9-9-9-9-9-9-9-9-9-9-9-9-9-9-9-7-7-7-7-7-7-7-7-5-7-9-
-7-7-7-7-7-7-7-7-7-7-7-7-7-7-7-7-5-5-5-5-5-5-5-5---5-7-

-------------------------------------------------------
-------------------------------------------------------
-------------------------------------------------7-----
-9-9-9-9-9-9-9-9-9-9-9-9-9-9-9-9-7-7-7-7-7-7-7-7-7-7-9-
-9-9-9-9-9-9-9-9-9-9-9-9-9-9-9-9-7-7-7-7-7-7-7-7-5-7-9-
-7-7-7-7-7-7-7-7-7-7-7-7-7-7-7-7-5-5-5-5-5-5-5-5---5-7-

-------------------------------------------------------
-------------------------------------------------------
-------------------------------------------------7-----
-9-9-9-9-9-9-9-9-9-9-9-9-9-9-9-9-7-7-7-7-7-7-7-7-7-7-9-
-9-9-9-9-9-9-9-9-9-9-9-9-9-9-9-9-7-7-7-7-7-7-7-7-5-7-9-
-7-7-7-7-7-7-7-7-7-7-7-7-7-7-7-7-5-5-5-5-5-5-5-5---5-7-

----------------------------------
----------------------------------
----------------------------------
-9----9--9-(9)---------9----9--9--
-9----9--9-(9)---------9----9--9--
-7----7--7-(7)---------7----7--7--

-------------------------------------------------------
-------------------------------------------------------
-------------------------------------------------7-----
-9-9-9-9-9-9-9-9-9-9-9-9-9-9-9-9-7-7-7-7-7-7-7-7-7-7-9-
-9-9-9-9-9-9-9-9-9-9-9-9-9-9-9-9-7-7-7-7-7-7-7-7-5-7-9-
-7-7-7-7-7-7-7-7-7-7-7-7-7-7-7-7-5-5-5-5-5-5-5-5---5-7-

-------------------------------------------------------
-------------------------------------------------------
-------------------------------------------------7-----
-9-9-9-9-9-9-9-9-9-9-9-9-9-9-9-9-7-7-7-7-7-7-7-7-7-7-9-
-9-9-9-9-9-9-9-9-9-9-9-9-9-9-9-9-7-7-7-7-7-7-7-7-5-7-9-
-7-7-7-7-7-7-7-7-7-7-7-7-7-7-7-7-5-5-5-5-5-5-5-5---5-7-

-------------------------------------------------------
-------------------------------------------------------
-------------------------------------------------7-----
-9-9-9-9-9-9-9-9-9-9-9-9-9-9-9-9-7-7-7-7-7-7-7-7-7-7-9-
-9-9-9-9-9-9-9-9-9-9-9-9-9-9-9-9-7-7-7-7-7-7-7-7-5-7-9-
-7-7-7-7-7-7-7-7-7-7-7-7-7-7-7-7-5-5-5-5-5-5-5-5---5-7-

-------------------------------------------------------
-------------------------------------------------------
-------------------------------------------------7-----
-9-9-9-9-9-9-9-9-9-9-9-9-9-9-9-9-7-7-7-7-7-7-7-7-7-7-9-
-9-9-9-9-9-9-9-9-9-9-9-9-9-9-9-9-7-7-7-7-7-7-7-7-5-7-9-
-7-7-7-7-7-7-7-7-7-7-7-7-7-7-7-7-5-5-5-5-5-5-5-5---5-7-


Thats the whole song. By the way this riff is played 4 times during the solo and it 
ends at the same time as the solo.

-------------------------------------------------------
-------------------------------------------------------
-------------------------------------------------7-----
-9-9-9-9-9-9-9-9-9-9-9-9-9-9-9-9-7-7-7-7-7-7-7-7-7-7-9-
-9-9-9-9-9-9-9-9-9-9-9-9-9-9-9-9-7-7-7-7-7-7-7-7-5-7-9-
-7-7-7-7-7-7-7-7-7-7-7-7-7-7-7-7-5-5-5-5-5-5-5-5---5-7-

If you have any corrections then please E-Mail me
Courtney_Love_Has_A_Bigger_Willy_Than_Me@Hotmail.com
Comments