Black Sabbath - Paranoid Chords & Tabs

 

Paranoid Chords & Tabs

Black Sabbath Chords & Tabs

Version: 13 Type: Tab 0 ratings
1 star 2 stars 3 stars 4 stars 5 stars
comments

Paranoid Tab

PARANOID by Black Sabbath
tabbed by isthatmycow (aka Will Fuller)

solo
|---------------------------------------------------------
|---------------------------------------------------------
|---------------------------------------------------------
|-15b16b16-12-14---14-12-14-12----------------------------
|------------------------------14-12-10h12-10h12-------10-
|------------------------------------------------10h12----

|---------------------------------------------------------
|---------------------------------------------------------
|---------------------------------------12h14-14b16b14-12-
|-----------------------12h14-14--12h14-------------------
|-----------10\12-12h14-----------------------------------
|-12--12-12-----------------------------------------------

|---------------------------------------------12----
|---------------------------------------12h15----15-
|-14b16b14-12h14--12--------------------------------
|--------------------14-14--12h14-14-14-------------
|---------------------------------------------------
|---------------------------------------------------
[ Tab from: http://www.guitartabs.cc/tabs/b/black_sabbath/paranoid_tab_ver_13.html ]
|-------------------------15b17-(17)-17b15-19p15p12-
|-15b17b15-15b17b15-15-12---------------------------
|---------------------------------------------------
|---------------------------------------------------
|---------------------------------------------------
|---------------------------------------------------

|-19p15p12-------------------------------------------------
|----------15p14p12-12h15-15p12----------------------------
|-------------------------------h14-14-12-14-14b16b14-12---
|----------------------------------------------------------
|----------------------------------------------------------
|----------------------------------------------------------

|----------------------------------------------------------
|----------------------------------------------------------
|-14b16b14-12h14p12-12-------------------------------------
|----------------------h14-14p12-----12--------------------
|--------------------------------h14-----14p12-12-----12h14
|-------------------------------------------------h15------

|----------------------------------
|-------------------------------12-
|-----------12------------------12-
|-12--12h14----14-12--14-12--14-12-
|----------------------------------
|----------------------------------

*where it says 15b17-(17)-17b15, the (17) means pick it while its bent*

enjoy
Comments