Black Sabbath - Paranoid Chords & Tabs

 

Paranoid Chords & Tabs

Black Sabbath Chords & Tabs

Version: 9 Type: Bass Tab 0 ratings
1 star 2 stars 3 stars 4 stars 5 stars
comments

Paranoid Bass Tab

   
                               PARANOID (Bassline)
                          As recorded by Black Sabbath
                         (From the 1970 Album PARANOID)

Words and Music by Anthony Iommi, John Osbourne, William Ward and Terence Butler
Arranged by Jake Brown
Transcribed by Jake Brown

Gtr I (E A D G) - 'Untitled'

 Intro
  Fast Rock Q=160
 4/4
  Gtr I
  Wx3           H    Q  Q       Q.  Q.  Q    E E E E E E E E
|-------------|-------------||-------------|-----7-9-----7-9--||
|-------------|-------------||o------------|-7-9-----7-9-----o||
|-------------|---------2/--||o-7---7---7--|-----------------o||
|-------------|-------------||-------------|------------------||


   Verse
    $
   4/4
    Gtr I
    E E E E E E E E E E E E E E E E E E E E E E E E
||------------------------------7-9----------------|
||o-------------------------7-9--------------------|
||o-7-7-7-7-7-7-7-7-7-7-7-7-7-7-7-7-5-5-5-5-5-5-5-5|
||-------------------------------------------------|


  E Q.   Q  E E   E E E E E E E E E E E E E E E E
|---------------|-----------------------------7-9-|
|-5-------------|-------------------------7-9-----|
|---5----7--5---|-7-7-7-7-7-7-7-7-7-7-7-7-7-7-7-7-|
|-------------7-|-0-0-----------------------------|


                                          1.
  E E E E E E E E   E Q.   Q  E E         E E E E E E E E   E E E E E E E
|-----------------|----------------||-||------------------|-----5-5-----7-|
|-----------------|-5---------7-5-o||-||o-----------------|---5-------7---|
|-5-5-5-5-5-5-5-5-|---5----7------o||-||o-7-7-7-7-7-7-7-7-|-3-------5-----|
|-----------------|----------------||-||------------------|---------------|


                                      2.
  E E E E E E E E E E E E E E E E     E E Q  E E Q    Q  E E E E Q
|----------------------------------||---------------|----------------|
|---------------------------------o||---------------|----------------|
|-7-7-7-7-7-7-7-7-7-7-7-7-7-7-7-7-o||-7-7-7--7-7-7--|-7--7-7-7-7-7---|
|----------------------------------||---------------|----------------|


  E S S E E E S S E S S   E S S E S S E S S E S S
|---7-7---7---7-7---7-7-|---7-7---7-7---7-7---7-7-|
|-----------------------|-------------------------|
|-5-----5---5-----5-----|-5-----5-----5-----5-----|
|-----------------------|-------------------------|


  E E E E E E E E   E E E E E E E E
|---9---9---9---9-|---9---9---9---9---|
|-----------------|-------------------|
|-7---7---7---7---|-7---7---7---7-----|
|-----------------|-------------------|


  E E E E E E E E   E E E E E E E     E E E E E E E E   E E E E E E E E
|---7---7---7---7-|---7---7---7---||------------------|------------------|
|-----------------|---------------||o-----------------|------------------|
|-5---5---5---5---|-5---5---5---5-||o-7-7-7-7-7-7-7-7-|-7-7-7-7-7-7-7-7--|
|-----------------|---------------||------------------|------------------|


                                         Guitar Solo
                                         3.
  E E E E E E E E   E Q.   Q  E E         E E E E E E E E   E E E E E E E
|-----------------|----------------||-||------------------|---------------|
|-----------------|-5---------7-5-o||-||o-----------------|---------------|
|-5-5-5-5-5-5-5-5-|---5----7--5---o||-||o-7-7-7-7-7-7-7-7-|-7-7-7-7-7-7-7-|
|-----------------|-------------7--||-||------------------|---------------|

[ Tab from: http://www.guitartabs.cc/tabs/b/black_sabbath/paranoid_btab_ver_9.html ]
  E E E E E E E E E   E Q.   Q  E E  4x E E E E E E E E E E E E E E E E
|-------------------|----------------||-----------------------------7-9-|
|-------------------|-5------7--7-5-o||-------------------------7-9-----|
|-7-5-5-5-5-5-5-5-5-|---5----7--5---o||-7-7-7-7-7-7-7-7-7-7-7-7---------|
|-------------------|-------------7--||---------------------------------|


  E E E E E E E E E Q.   Q  E E   E E E E E E E E E E E E E E E E
|-------------------------------|-----------------------------7-9---|
|-----------------5---------7-5-|-------------------------7-9-------|
|-5-5-5-5-5-5-5-5---5----7--5---|-7-7-7-7-7-7-7-7-7-7-7-7-----------|
|-----------------------------7-|-----------------------------------|


                                   Verse
  E E E E E E E E   E q  Q  E E     E E E E E E E E E E E E E E E E
|-----------------|-------------||------------------------------7-9---|
|-----------------|-5-------7-5-||o-------------------------7-9-------|
|-5-5-5-5-5-5-5-5-|---5--7--5---||o-7-7-7-7-7-7-7-7-7-7-7-7-7-7-7-7---|
|-----------------|-----------7-||------------------------------------|


  E E E E E E E E   E Q.   Q  E E E E   E E E E E E E E
|-----------------|-------------------|-----------------|
|-----------------|-5-----------------|-----------------|
|-5-5-5-5-5-5-5-5-|---5----7--7-5-7---|-7-7-7-7-7-7-7-7-|
|-----------------|-----------------7-|-----------------|


  E E E E E E E E   E E E E E E E E   E Q.   Q  E E
|-------------7-9-|-----------------|---------------|
|---------7-9-----|-----------------|-5---------7-5-|
|-7-7-7-7-7-7-7-7-|-5-5-5-5-5-5-5-5-|---5----7------|
|-----------------|-----------------|---------------|


  1.
  E E E E E E E E   E E E E E E E E   E E E E E E E E E E E E E E E E
|-----------------|-----5-5-----7-7-|----------------------------------||-|
|-----------------|---5-------7-----|---------------------------------o||-|
|-7-7-7-7-7-7-7-7-|-3-------5-------|-7-7-7-7-7-7-7-7-7-7-7-7-7-7-7-7-o||-|
|-----------------|-----------------|----------------------------------||-|


  2.
  E E E E E E E E   E E E E E E E E   E E E E E E E E   E Q.   Q  Q
|-----------------|-------------7-9-|-----------------|--------------*|
|-----------------|---------7-9-----|-----------------|-5------------*|
|-7-7-7-7-7-7-7-7-|-7-7-7-7---------|-5-5-5-5-5-5-5-5-|---5----7-----*|
|-----------------|-----------------|-----------------|--------------*|


Duration Legend
---------------
W - whole; H - half; Q - quarter; E - 8th; S - 16th; T - 32nd; X - 64th; a - acciaccatura
+ - note tied to previous; . - note dotted; .. - note double dotted
Uncapitalized letters represent notes that are staccato (1/2 duration)
Irregular groupings are notated above the duration line
Duration letters will always appear directly above the note/fret number it represents the
duration for.  Duration letters with no fret number below them represent rests.  Multi-
bar rests are notated in the form Wxn, where n is the number of bars to rest for.  Low
melody durations appear below the staff

Tablature Legend
----------------
 h   - hammer-on
 p   - pull-off
 b   - bend
 pb  - pre-bend
 r   - bend release (if no number after the r, then release immediately)
 /\  - slide into or out of (from/to "nowhere")
 s   - legato slide
 S   - shift slide
  - natural harmonic
[n]  - artificial harmonic
n(n) - tapped harmonic
 ~   - vibrato
 tr  - trill
 T   - tap
 TP  - trem. picking
 PM  - palm muting
\n/  - tremolo bar dip; n = amount to dip
 \n  - tremolo bar down
 n/  - tremolo bar up
/n\  - tremolo bar inverted dip
 =   - hold bend; also acts as connecting device for hammers/pulls
 <>  - volume swell (louder/softer)
 x   - on rhythm slash represents muted slash
 o   - on rhythm slash represents single note slash

Misc Legend
-----------
 |  - bar
||  - double bar
||o - repeat start
o|| - repeat end
*|  - double bar (ending)
 :  - bar (freetime)
 $  - Segno
 &  - Coda
Tempo markers -  = BPM(8/16=s8/s16), where s8 = swing 8ths, s16 = swing 16ths
v
Comments