Black Sabbath - Paranoid Chords & Tabs

 

Paranoid Chords & Tabs

Black Sabbath Chords & Tabs

Version: 8 Type: Bass Tab 0 ratings
1 star 2 stars 3 stars 4 stars 5 stars
comments

Paranoid Bass Tab

--------------------------------------------------------------------------------
			     Paranoid - BLACK SABBATH 
--------------------------------------------------------------------------------

Tabbed By :HENRY   A.K.A  |GEL-HEAD|
e-mail: Fender GelHead4@aol.com

Tuning:Normal or Whatever Sounds Best

LEGEND:
<>-Means how many times you hit a certain note(for those of you who are lazy
and dont like to count)


Main Riff #1
G|----------------------------------------------------------------------|
D|-------------------------------------------------------5--------------|
A|---7-7-7-7-7-7-7-7-7-7-7-7<12>--5-7--5-5-5-5-5-5-5<7>----5-7----------|
E|----------------------------------------------------------------------|
[ Tab from: http://www.guitartabs.cc/tabs/b/black_sabbath/paranoid_btab_ver_8.html ]
The Hook
G|----------------------------------------------------------------------|
D|----------------------------------------------------5-----------------|
A|--7-7-7-7-7-7-7-7-7-7<10>----5-7--5-5-5-5-5-5-5<7>----5-7-------------|
E|---------------------------7------------------------------------------|

Riff #2
G|------------------------5---------------------------------------------|
D|----------------------5-----------------------------------------------|
A|--7-7-7-7-7-7-7<7>--3------7-7-7-7-7-7-7-7-7-7-7-7<12>----------------|
E|----------------------------------------------------------------------|

Riff #3
G|----7--7--7---9--9--9------7--7--7---9--9--9--------------------------|
D|----------------------------------------------------------------------|
A|--5--5--5---7--7--7------5--5--5---7--7--7----------------------------|
E|----------------------------------------------------------------------|
Comments