Black Sabbath - Paranoid Chords & Tabs

 

Paranoid Chords & Tabs

Black Sabbath Chords & Tabs

Version: 4 Type: Bass Tab 7 ratings
1 star 2 stars 3 stars 4 stars 5 stars
comments

Paranoid Bass Tab

Song : Paranoid
Band : Black Sabbath
Bassist : Geezer Butler
Tabbed by : Bryan Diaz

these are just the riffs to the songs, the order is on the side. yeah..homeys...word up.

Intro
|----------------7-9-----7-9---------------7-9-----7-9----|
|------------7-9-----7-9---------------7-9-----7-9--------|        *::Order::*
|-2/7--7--7-------------------7--7--7---------------------|           Intro
|---------------------------------------------------------|           Verse 1
                                                                      Bridge 1  
Verse 1 / Main Riff / Verse 4                                         Verse 2  
|---------------------------------------------------------|           Bridge 2
|-------------------------------------------------5-----5-| (x2)      Main Riff
|-7-7-7-7-7-7-7-7-7-7-7-7-7-7-7-7-5-5-5-5-5-5-5-5---5-7---|           Verse 3
|---------------------------------------------------------|           Solo
                                                                      Post Solo
Bridge 1 / Bridge 3                                                   Verse 4
|---------------------5----7------------------------------|           Bridge 3
|-------------------5----7--------------------------------| (x2)      Verse 5
|-7-7-7-7-7-7-7-7-3----5-----7-7-7-7-7-7-7-7-7-7-7-7-7-7--|           Outro 
|---------------------------------------------------------| 
  
Verse 2
|---------------------------------------------------------|
|-------------------------------------------------5-----5-| 
|-7-7-7-7-7-7-7-7-7-7-7-7-7-7-7-7-5-5-5-5-5-5-5-5---5-7---|
|---------------------------------------------------------|
[ Tab from: http://www.guitartabs.cc/tabs/b/black_sabbath/paranoid_btab_ver_4.html ]
|-----------------------------7-9-------------------------|
|-------------------------7-9---------------------5-----5-| 
|-7-7-7-7-7-7-7-7-7-7-7-7---------5-5-5-5-5-5-5-5---5-7---|
|---------------------------------------------------------|

Bridge 2
|-----------------------------------7---7---7---7---7---7---7---7---7-|
|---------------------------------------------------------------------| 
|-7-7-7-7-7-7-7-7-7-7-7-7-7-7-7-7-5---5---5---5---5---5---5---5---5---|
|---------------------------------------------------------------------|

|---9---9---9---9---9---9---9---9---7---7---7---7---7---7---7---7---7-|
|---------------------------------------------------------------------| 
|-7---7---7---7---7---7---7---7---5---5---5---5---5---5---5---5---5---|
|---------------------------------------------------------------------|

Verse 3 / Post Solo / Verse 5
|-----------------------------7-9-------------------------|
|-------------------------7-9---------------------5-----5-| (x2)
|-7-7-7-7-7-7-7-7-7-7-7-7---------5-5-5-5-5-5-5-5---5-7---|
|---------------------------------------------------------|

Solo
|---------------------------------------------------------|
|-------------------------------------------------5-----5-| (x4)
|-7-7-7-7-7-7-7-7-7-7-7-7-7-7-7-7-5-5-5-5-5-5-5-5---5-7---|
|---------------------------------------------------------|
  
Outro
|---------------------------------------------------------|
|-------------------------------------------------5-----5-| 
|-7-7-7-7-7-7-7-7-7-7-7-7-7-7-7-7-5-5-5-5-5-5-5-5---5-7---|
|---------------------------------------------------------|

|-----------------------------7-9-------------------------|
|-------------------------7-9---------------------5-------| 
|-7-7-7-7-7-7-7-7-7-7-7-7---------5-5-5-5-5-5-5-5---5-7---|
|---------------------------------------------------------|
Comments