Black Sabbath - Paranoid Chords & Tabs

 

Paranoid Chords & Tabs

Black Sabbath Chords & Tabs

Version: 10 Type: Bass Tab 0 ratings
1 star 2 stars 3 stars 4 stars 5 stars
comments

Paranoid Bass Tab

After Guitar Comes Does it Twice(come in with drums)

|-------------------------------
|------------------------------- x2
|-5h7-5h7-5h7----5-7---5-7------
|-------------5-7---5-7---------

|-----------------------------------
|------------------------------5----  x2
|-777777777777----5-7-55555555--5--7
|--------------5-7------------------

|-----------------------------------
|-----------------------------------  x2
|-77777777-3333-5555-77777777777777-
|-----------------------------------

|-----------------------------------
|------------------------------5----  x2
|-777777777777----5-7-55555555--5--7
|--------------5-7------------------
[ Tab from: http://www.guitartabs.cc/tabs/b/black_sabbath/paranoid_btab_ver_10.html ]
|-----------------------------------------------------------
|-----------------------------------------------------------
|-777777777777--55555555555555-77777777777777-55555555555555
|-----------------------------------------------------------

|-----------------------------------
|------------------------------5----  x4
|-777777777777----5-7-55555555--5--7
|--------------5-7------------------

During Guitar Solo
|-----------------------------------
|------------------------------5----  x4
|-777777777777----5-7-55555555--5--7
|--------------5-7------------------

|-----------------------------------
|------------------------------5----  x4
|-777777777777----5-7-55555555--5--7
|--------------5-7------------------

|-----------------------------------
|-----------------------------------  x2
|-77777777-3333-5555-77777777777777-
|-----------------------------------

|-----------------------------------
|------------------------------5----  x4
|-777777777777----5-7-55555555--5--7
|--------------5-7------------------
Comments