Black Sabbath - Nib Chords & Tabs

 

Nib Chords & Tabs

Black Sabbath Chords & Tabs

Version: 8 Type: Tab 0 ratings
1 star 2 stars 3 stars 4 stars 5 stars
comments

Nib Tab

   
--------------------------------------------------------
                 N.I.B     Black Sabbath
--------------------------------------------------------

Tabbed by: cender1987
Email: cender1987@ yahoo.com


Tuning: standard

e] -----------------------------------------------------------------------
B] -------------------------------------------------------------9b7~~~----
G] ---9---9---7---9---12--10---------9---9---7---5------------------------
D] ---9---9---7---9---12--10---------9---9---7---5------------------------
A] ---7---7---5---7---10---9---------7---7---5---7------------------------
E] -----------------------------------------------------------------------
[ Tab from: http://www.guitartabs.cc/tabs/b/black_sabbath/nib_tab_ver_8.html ]
e] -----------------------------------------------------------------------
B] -----------------------------------------------------------------------
G] ---9---9---7---5---12--10---------9---9---7----------------------------
D] ---9---9---7---5---12--10---------9---9---7------7---9---7---9---------
A] ---7---7---5---7---10---9---------7---7---5----------------------------
E] -----------------------------------------------------------------------

e] -----------------------------------------------------------------------
B] ---12---12b------------------------------------------------------------
G] ---12---12b---------------7---9---7---9--------------------------------
D] ---12---12b----------/7------------------------------------------------
A] -----------------------------------------------------------------------
E] -----------------------------------------------------------------------

e] -----------------------------------------------------------------------
B] -----------------------------------------------------------------------
G] -----------------------------------------------------------------------
D] -----------------------------------------------------------------------
A] ----------------10-12-12-10-----------------------10-12-12-10----------
E] ---10-12-------------------------12-12-10-12---------------------12----

] b = bend
] ~ = vibrato
] / = slide up
Comments