Black Sabbath - Nib Chords & Tabs

 

Nib Chords & Tabs

Black Sabbath Chords & Tabs

Version: 3 Type: Tab 1 rating
1 star 2 stars 3 stars 4 stars 5 stars
comments

Nib Tab

                  black sabbath/nib
    off the ablum black sabbath 
    tune down 1 1/2 steps (c#)
    
main riff 

----------------------------------------
----------------------------------------
----------------------------------------
----------------------------------------
-14--14--12-14-17--16---14--14--12---
-12--12--10-12-15--14---12--12--10---
            or 

----------------------------------------
----------------------------------------
--9--9--7--9--12--11---9--------------
--9--9--7--9--12--11---9--------------
--7--7--5--7--10--9----7-------------
----------------------------------------

fill ins 
fill 1                            fill 2                       fill 3
------------------|--------------------------|---12--12-\------------
--10^(12)-------|--------------------------|---12--12-\------------
------------8~~-|---------------------------|---12--12-\------------
------------------|----7h9p7h9p7h9p7h9---|-------------------
------------------|-/7-----------------------|--------------------
------------------|--------------------------|---------------------

                  riff 1                    fill 4               
                         
--------------------------------|----------------
--------------------------------|-12---12------------
--------------------------------|-14^-14^---------
--------------------------------|----------
---------10--12-12p10--------|-----------------
-10h12------------------12-12|-----------------


riff 2

figure out there some kind of special picking that i can't explain
-------------------------------------------------
-------------------------------------------------
-0--7-\--5--\--3--\--5--/--3-\--5--------------
-2--7-\--5--\--3--\--5--/--3-\--5--------------
-2--5-\--3--\--1--\--3--/--1-\--3--------------
--------------------------------------------------


solo #1


----------------------------------------------------------------------------
----------------------------------------------------------------------------
--------------------------------4-4--4/7-7h9--9^9^-9^^^-7h9p7--7-----
5-4h5p4---5-4h5p4---4h5-7-----------------------------------------------
-----------7----------7-------------------------------------------------------
----------------------------------------------------------------------------


-----------------------------------------
--------8-10p8---8-10^p8-10-8-------
999/8----------9-----------------------
----------------------------------------
----------------------------------------
----------------------------------------


----------------------------------------
10^p8-10-8-10p8h10-8-\-0---------
---------------------------------------
---------------------------------------
---------------------------------------
----------------------------------------


--------------------------------------------------------------12-12--------------
-----------------------------------------------------------12--------15~-15-12-
--------------------4-4--4/7-7/9-9-9--/-12-12h14-14^------------------------
5-4h5p4---4h5h7----------------------------------------------------------------
-----------7-----------------------------------------------------------------------
----------------------------------------------------------------------------------


15p12----15p12---15p12----15p12-15~--15-12h15p12----12---------------12----
-------12-------12--------12------------------------------15----15p12-----12----15-
--------------------------------------------------------------------------14^----------
----------------------------------------------------------------------------------------
----------------------------------------------------------------------------------------
----------------------------------------------------------------------------------------


-----12--------------------------------------------------------------
15^----15p12----12-15---------------------------------------------
----------------15--------14^-14~---14-12h14p12------14~p12--
--------------------------------------------------------14------------
-----------------------------------------------------------------------
-----------------------------------------------------------------------


solo #2

[ Tab from: http://www.guitartabs.cc/tabs/b/black_sabbath/nib_tab_ver_3.html ]
-----------------------------------------------------------------------------------
-----------------------------------------------------------------------------------
-----------------------------------4-4--4/7--7h9--9^-9^-9^^^-7h9p7-7------
-5--4h5p4---5--4h5p4---4h5-7--------------------------------------------------
-------------7------------7---------------------------------------------------------
-----------------------------------------------------------------------------------


-------------------------------10~------------------------------
/8-8-8/-8-8-8/8-8-8/-8-8-8------10^-8-10p8---10-10^p8--
/9-9-9/-9-9-9/9-9-9/-9-9-9--------------------9--------------
-----------------------------------------------------------------
-----------------------------------------------------------------
-----------------------------------------------------------------


----------------------------------------------------------12-------------15~-15-15p12------
10----8-10-10^^^^^^^^^^^p8-10p8h10-------12----15^^^12-------------------15^-
----9---------------------------------------------14^----------------------------------------
-----------------------------------------------------------------------------------------------
------------------------------------------------------------------------------------------------
-----------------------------------------------------------------------------------------------


----12----------------12----------12-------------12----------------------------------------------
15-----15--12----12-----15-15~----15-12----------15-15~--12h14p12-----12-----------------
----------------14----------------------------14--------------------------------14^----14-12-14p12--
----------------------------------------------------------------------------------------------------
----------------------------------------------------------------------------------------------------
----------------------------------------------------------------------------------------------------


-------------12-----------------------15p12-----15p12----15p12-----15p12-----15p12----15p12-----
---------12-----------------------12--------12-----------12---------12---------12---------12--------12--
12-14^--------14^-14^-14^^^------------------------------------------------------------------------
-----------------------------------------------------------------------------------------------------------
------------------------------------------------------------------------------------------------------------
------------------------------------------------------------------------------------------------------------


15~-15-12h15p12-----------------------------------------------------------
-----------------------15-15p12----12-15^p12-----12-------------------------
-----------------------------------14--------------14-----------------------------
--------------------------------------------------------------------------------
---------------------------------------------------------------------------------
---------------------------------------------------------------------------------


---------------------------------------------------------------------
---------------------------------------------------------------------
9-----------12-14~-14p12-12-12\9--7h9--7--------------9\---------
9---12-14---------------------------------------9------------9\---------
7----------------------------------------------------7\6-------7\----------
-----------------------------------------------------------------------



song structure 

intro bass solo 

main riff x1 + fill 1
main riffx1 + fill 2
main riffx1 + fill 3
main riffx1 + fill 2
main riffx1 + fill 3
main riffx1 
riff 1x3
fill 4
main riffx1 + fill 1
main riffx1 + fill 2
main riffx1 + fill 3
main riffx1 + fill 2
main riffx1 + fill 3
main riffx1
riff 2x1
main riffx1 + fill 1
main riffx1 + fill 2
main riffx1 + fill 3
main riffx1 + fill 2
main riffx1 + fill 3
main riffx1
riff 1x3
fill 4
solo#1
main riffx1 + fill 1
main riffx1 + fill 2
main riffx1 + fill 3
main riffx1 + fill 2
main riffx1 + fill 3
main riffx1
riff 2
main riffx1 + fill 1
main riffx1 + fill 2
main riffx1 + fill 3
main riffx1 + fill 2
main riffx1 + fill 3
main riffx1
riff 1x3
fill 4 
solo#2

Comments