Black Sabbath - Nib Chords & Tabs

 

Nib Chords & Tabs

Black Sabbath Chords & Tabs

Version: 2 Type: Tab 0 ratings
1 star 2 stars 3 stars 4 stars 5 stars
comments

Nib Tab

NIB by Black Sabbath
Tabbed out by Robert Hamner
On my first ones, all i had was the ending, so here's the rest
e-----------------------12-12----------------------------------------------
b-----------------------15b15b-----------------------------------------------
g-9-9-7-9-12-11-9-9-7-9--------9-9-7-9-12-11-9-9-7-9-------------------------------------------
d-9-9-7-9-12-11-9-9-7 9--------9-9-7-9-12-11-9-9-7-9-----7tr979--------------------------------------
a-7-7-5-7-10-9--7-7-5-7--------7-7-5-7-10-9--7-7-5-7-7h9----------------------------------------
e----------------------------------------------------------------------
   play over and over
e---------------------------l-------------------------------------------
b---------------------------l--------------------------------------------
g---------------------------l--12b-12b-12b\---------------------------------------
d---------------------------l--12b 12b 12b\------------------------------------------
a-------10-12-12-12p10------l------------------------------------------------------
e-10h12----------------12-12l------------------------------------------
         3 times, then
e-----------------------------------------------------------------------
b-----------------------------------------------------------------------
g----------------------------------------------------------------------
d----------------------------------------12/14-14-14b 14b 14b 12h14p12----------------------------
a10 9h10p9----10 9h10p9----9/10-12/14-14------------------------------------------------------------
e----------12-----------12---------------------------------------------
2 gtrs.
e-------------------------------------l----------------------------------
b-------------------------------------l---------------------------------
g-------------------------------------l---------------------------------
d-121414121414121414-12-14 14p12\11---l-14 14p12---12 14 14p12---12---------------------------------------------------------
a-----------------------------------14l---------14-------------14-------------
e-------------------------------------l---------------------------------
  while one guitar plays this, other plays this^

e----------------------------------------------------------------------
b----------------------------------------------------------------------
g---------------------------------------------------------------12/14 14-------
d-14b 14b 14p12 14 12----------------------------------12/14 14 -----------------------------------
a---------------------10 9h10p9----9/10/12 14 14 14/17---------------------------------------------
e-------------------------------12---------------------------------------
2 gtrs. again

e--------------12---------------15p12--15p12-- 15p12---15p12-15b---------------------------------
b-12/15 15b 12----15 14b 14 12 ------12-----12------12------------------------------------------------
g----------------------------------------------------------------------
d----------------------------------------------------------------------
a----------------------------------------------------------------------
e----------------------------------------------------------------------

e-15 14h15p14 12-----------12 12b 12----------------------------------------------------------
b----------------151412-14-----------15121512-------12b-----------------------------------
g---------------------------------------------14 12-------------------------
d----------------------------------------------------------------------
a----------------------------------------------------------------------
e----------------------------------------------------------------------

then, gtr. 1 plays this      while gtr.2 plays this
e-------------------------l---------------------------------------------
b-------------------------l--12 10h12p10----12 12p10---------------------------------------
g------- 12h14p12----12---l--------------12-----------12-------------------------------
d--12h14----------14----14l------------------------------------------------------
a-------------------------l---------------------------------------------
e-------------------------l---------------------------------------------
for the ending solo, look at NIB solo, and for the your love for me part, look
at the other tabs e-mail me at rhloser@hotmail for anything
[ Tab from: http://www.guitartabs.cc/tabs/b/black_sabbath/nib_tab_ver_2.html ]
Comments