Black Sabbath - Nib Chords & Tabs

 

Nib Chords & Tabs

Black Sabbath Chords & Tabs

Version: 11 Type: Tab 0 ratings
1 star 2 stars 3 stars 4 stars 5 stars
comments

Nib Tab

"N.I.B" by Black Sabbath
-tabbed by JeffMitchell89
-e-mail 'Norcalskater5@aol.com'

Guitar fig. 1:
E---------------------------------------------------------------------|
B---------------------------------------------------------------------|
G-----------------------------------------14b-12v---------------------|
D---------------------------------------------------------------------|
A--14-14-12-14---17-16-----14-14-12-14--------------------------------|
E--12-12-10-12---15-14-----12-12-10-12--------------------------------|

E---------------------------------------------------------------------|
B---------------------------------------------------------------------|
G---------------------------------------------------------------------|
D---------------------------------------------------------------------|
A--14-14-12-14---17-16-----14-14-12-14--------12h14--12h14------------|
E--12-12-10-12---15-14-----12-12-10-12------7-------------------------|

Guitar fig. 2:
E---------------------------------------------------------------------|
B---------------------------------------------------------------------|
G-----------------------------------------12--12----------------------|
D-----------------------------------------12--12----------------------|
A--14-14-12-14---17-16-----14-14-12-14--------------------------------|
E--12-12-10-12---15-14-----12-12-10-12--------------------------------|

E---------------------------------------------------------------------|
B---------------------------------------------------------------------|
G---------------------------------------------------------------------|
D---------------------------------------------------------------------|
A--14-14-12-14---17-16-----14-14-12-14--------12h14--12h14------------|
E--12-12-10-12---15-14-----12-12-10-12------7-------------------------|

Guitar fig. 3:
E-----------------------------------7---7b--7b------------------------|
B---------------------------------------7b--7b------------------------|
G---------------------------------------------------------------------|
D--------5--7--7p5----------------------------------------------------|
A----5h7-----------7-7---(x3)-----------------------------------------|
E---------------------------------------------------------------------|

Guitar Fig. 4:
E---------------------------------------------------------------------|
B---------------------------------------------------------------------|
G---------------------------------------------------------------------|
D---------------------------------------------------------------------|
A---14---12---10---9------------9-10---10--9------9-10---10--9--------|
E---12---10----8---7----(x2)----7--8----8--7------7--8----8--7--------|



Guitar Solo 1:
E---------------------------------------------------------------------|
B---------------------------------------------------------------------|
G-----------------------------------4-4----4-7-7----7-9-9----9b(10)---|
D---5-4h5p4-----5-4h5p4----4/5----7-----------------------------------|
A-----------7-----------7---------------------------------------------|
E---------------------------------------------------------------------|

[ Tab from: http://www.guitartabs.cc/tabs/b/black_sabbath/nib_tab_ver_11.html ]
E---------------------------------------------------------------------|
B--------------------------------------------8-10p8----8-10--10p8-----|
G--9b(10)--9b(10)----7h9-7----7--9-9-9---8h9--------9--------------9--|
D---------------------------------------------------------------------|
A---------------------------------------------------------------------|
E---------------------------------------------------------------------|

E---------------------------------------------------------------------|
B---10p8-10-8----10p8-10-8-10^-10^-------8h10-8/--(15)----------------|
G---------------------------------------------------------------------|
D---------------------------------------------------------------------|
A---------------------------------------------------------------------|
E---------------------------------------------------------------------|


E----------------------------------------------------------------12-12-|
B--------------------------------------------------------------12------|
G--------------------4-4---4h7-7---7h9-9---9h12-12--12h14-14-----------|
D---5-4h5p4----4h5h7---------------------------------------------------|
A-----------7----------------------------------------------------------|
E----------------------------------------------------------------------|

E---------------15p12-----15p12-----15p12----15p12-----15b(17)---15---|
B--15b-15----12---------12--------12-------12--------12---------------|
G---------------------------------------------------------------------|
D---------------------------------------------------------------------|
A---------------------------------------------------------------------|
E---------------------------------------------------------------------|

E---12h15-12-----12-------------12--------------12--------------------|
B--------------15---15p12-----12-----15-15b(16)---15-12---12--15------|
G--------------------------14b-------------------------15--------14b--|
D---------------------------------------------------------------------|
A---------------------------------------------------------------------|
E---------------------------------------------------------------------|

E---------------------------------------------------------------------|
B---------------------------------------------------------------------|
G-14b--14-12h14-12-------12-14p12-------------------------------------|
D---------------------14----------------------------------------------|
A---------------------------------------------------------------------|
E---------------------------------------------------------------------|




Lyrics:

Oh yeah!

Some people say my love cannot be true
Please believe me, my love, and i'll show you
I will give you those things you thought unreal
The sun, the moon, the stars all bear my seal

Oh yeah!

Follow me now and you will not regret
Leaving the life you led before we met
You are the first to have this love of mine
Forever with me 'till the end of time

Your love for me has just got to be real
Before you know the way i'm going to feel
I'm going to feel
I'm going to feel

Oh yeah!

Now i have you with me, under my power
Our love grows stronger now with every hour
Look into my eyes, you will see who i am
My name is lucifer, please take my hand

Oh yeah!

Follow me now and you will not regret
Leaving the life you led before we met
You are the first to have this love of mine
Forever with me 'till the end of time

Your love for me has just got to be real
Before you know the way i'm going to feel
I'm going to feel
I'm going to feel

Oh yeah!

Now i have you with me, under my power
Our love grows stronger now with every hour
Look into my eyes, you will see who i am
My name is lucifer, please take my hand


I will add the second solo soon.
Comments